» » »

Jack Johnson, Bubble Toes Tabs (ver.3)

Artists:  A B C D E F G H I J K L M N O P Q R S T U V W X Y Z # 

Bubble Toes Tabs (ver.3)

Jack Johnson Tabs
Rating:
0/5 (0 votes)
Bubble Toes lessons Tabs too difficult? Try these video lessons and learn fast
                Jack Johnson  -- Bubbletoes --
intro- It's as simple......
---------------------------------------
---------------------------------------
-7----------9-----5--------------------
-7----7-----9-----5--------------------
-5----7-----7-----3--------------------
------5--------------------------------

Bridge
---------------------------------------
---------------------------------------
---------------------------------------
--0---0---2---3---3---2----------------
---------------------------------------
--3---3---3---3---3---3----------------

(Verse Riff)-- All u do is strum
---------------------------------------
---------------------------------------
------------5-5-5-5-5-/--7-7-7-7-7-----
-5-5-5-5-5--5-5-5-5-5-/--7-7-7-7-7-----
-5-5-5-5-5--3-3-3-3-3-/--5-5-5-5-5-----
-3-3-3-3-3-----------------------------
(between verse)
--------------------------------------
--------------------------------------
--------------------------------------
------------------2-2-2-2--4--2-------
-----2--3--5----------------------5---
3-3----------3--------------------------
            
Submit corrections

comments powered by Disqus
↑ Back to top | Jack Johnson Tabs for Bubble Toes. Lyrics for acoustic guitar and electric guitar. Tablatures and chords are parodies/interpretations of the original songs. You may use it for private study, scholarship, research or language learning purposes only