» » »

Jack Johnson, Bubble Toes Bass tabs (ver.1)

Artists:  A B C D E F G H I J K L M N O P Q R S T U V W X Y Z # 

Bubble Toes Bass tabs (ver.1)

Jack Johnson Tabs
 Rating:
4/5 (4 votes)
Bubble Toes lessons Tabs too difficult? Try these video lessons and learn fast
                Bubble toes

*=very soft


little intro thing happens at 0:12 and 0:30

G------------------------------------|
D------------------------------------|
A------------------------------------|
E-3-33-33-33-------------------------|

main riff
           *           *
G----------7/----------7--|
D-------------------------|
A------------3-3/5-5------|
E-3-3-33------------------|

Other riff
The first time he plays:

G------------------------------------------------------------|
D------------------------------------------------------------|
A------55------55-----55----55-----55-3-3-33-5-5-55----------|
E-3-3-----3-3-----3-3---3-3---3-3----------------------------|

rest of the times

G---------------------------------|
D---------------------------------|
A-----55-----55-3-333-5-555-------|
E-3-3----3-3----------------------|
            
Submit corrections

comments powered by Disqus
↑ Back to top | Jack Johnson Bass for Bubble Toes. Lyrics for acoustic guitar and electric guitar. Tablatures and chords are parodies/interpretations of the original songs. You may use it for private study, scholarship, research or language learning purposes only