>
 >
Broken 2

Broken 2 Guitar Tabs

Jack Johnson - Broken 2 chords, tabs, tablatures, lyrics

Guitar lessons | Add/correct | Request | Top 50 tabs Artists:  A B C D E F G H I J K L M N O P Q R S T U V W X Y Z 0-9

Broken 2 Guitar Tabs – Jack Johnson

CD, Sheet music, Poster

Do you like Broken 2? Share with your friends now
ChordsTabsTabs v2Tabs v3Ukulele
I noticed no one had a legit tab for the LEAD guitar of this great song.
I may add Rhythm later. Hope you guys like it.
It's my first tab ^^

Order of song:
-Intro-
-Verse-
-Chorus(1)-
-Verse-
-Chorus(2)-
-Solo-
-Verse-
-Chorus(3)-

h = Hammer-on
p = Pull-off
/ = Slide
x = Silenced note
~ = Let note ring
[] = Natural Harmonics
() = Piano note transcribed for guitar


Intro: Guitar 1
e|-----x------2~~----------------|-----------/5-2---------2~~--|
B|-----3-x-3--3/5-3---------3----|-----3-x-3-----5-3h5p3--3----|
G|-------x4--------4-2h4p2-------|-----2-x4-------------4---4p2|
D|-2/4--------------------4---4p2|-2/4-------------------------|
A|-------------------------------|-----------------------------|
E|-------------------------------|-----------------------------|

Guitar 2: Various D and G chords begin here (listen to song).

Guitar 1 cont'd
e|-----x------2~~----------------|------------2~~---2~~--------|
B|-----3-x-3--3/5-3---------3----|-----3-x-3--5-3-0-5-3~3~-----|
G|-------x4--------4-2h4p2-------|-----2-x4------------4~~-----|
D|-2/4--------------------4---4/2|-2/4----------------------4/2|
A|-------------------------------|-----------------------------|
E|-------------------------------|-----------------------------|


Verse: Guitar 1
e|-----x------2~~----------------|-----------|---|---|---|-----|
B|-----3-x-3--3/5-3---------3----|-----3-x-3-|---|---|---|-----|
G|-------x4--------4-2h4p2-------|-----2-x4--|---|---|---|-----|
D|-2/4--------------------4---4/2|-2/4-------|---|---|---|--4/2|
A|-------------------------------|-----------|---|---|---|-----|
E|-------------------------------|-----------|---|---|---|-----|
                                            |_____________|
                                                  ***
***: During the verse, these few measures vary every time they're played.
They're supposed to be improvised; fool around with the G scale on the e and B strings.


Chorus: Guitar 1
e|-------------------------------|--------------------------------|
B|-------------------------------|--------------------------------|
G|-7/4~~4/2~~2/4~~4/7~~7/9~~9/7~~|-7/4~~4/2~~2/4~~4/7~~7/9~~9/11~~|
D|-------------------------------|--------------------------------|
A|-------------------------------|--------------------------------|
E|-------------------------------|--------------------------------|

Chorus 1 Ending:
e|--7-----------------------|
B|-10-10--7-10--7-----------|
G|--------------------------|
D|--------------------------|
A|--------------------------|
E|--------------------------|

Chorus 2 Ending:
e|--------------------------|
B|--------------------------|
G|-7/9-11-7-9---------------|
D|--------------------------|
A|--------------------------|
E|--------------------------|

Chorus 3 Ending -> Outro:
e|------------2~~---2~~-----|-------------------------------||
B|-----3-x-3--5-3-0-5-3~3~--|-------------------------------||
G|-----2-x4------------4~~--|-7/4~~4/2~~2/4~~4/7~~7/9~~9/7~~||
D|-2/4----------------------|-------------------------------||
A|--------------------------|-------------------------------||
E|--------------------------|-------------------------------||


Solo:
e|-------------------------------|---------------------------------------|
B|-------------------------------|---------------8-7-----7h8p7h8p7/5-5/3-|
G|-9/11~~11-9~/7-7-----7/4~~4/2~~|2~~~~~~~~-----7----7~~-----------------|
D|---------------(9p7-7)---------|---------4h5h7-------------------------|
A|-------------------------------|---------------------------------------|
E|-------------------------------|---------------------------------------|

e|---(14)------------------------|---------------------------------------|
B|--(10)----------------(8)(8)---|---3h5-3--3h5-3------------------------|
G|-(11)-----------------(7)(9)---|-/4-----4------------------------------|
D|-------------------------------|---------------------------------------|
A|--------5/7-7~~/2-2------------|-----------------------------0h2-0-----|
E|-------------------------------|-----------------------------------2-0-|

e|-------------------------------|---------------------------------------|
B|-------------------------------|---------------------------------------|
G|-------------------------7-----|---------------------------------------|
D|----------------------7/9-7h9-7|--------------------------------4/5/7-5|
A|--------0-2-5/7-5--7/9---------|9-[7]-----------0-2-5/7-5----0h2-------|
E|-2-3--3------------------------|-----5-0---2-3------------0h2----------|


Lyrics:
With everything ahead of us
We left everything behind
But nothing that we needed
At least not at this time
And now the feeling that I'm feeling
Well it's feeling like my life is finally mine
With nothing to go back to we just continue to drive
Without you I was broken
But I'd rather be broke down with you by my side
I didn't know what I was looking for
So I didn't know what I'd find
I didn't know what I was missing
I guess you've been just a little too kind
And if I find just what I need
I'll put a little peace in my mind
Maybe you've been looking too
Or maybe you don't even need to try
Without you I was broken
But I'd rather be broke down with you by my side
With everything in the past
Fading faster and faster until it was gone
Found out I was losing so much more than I knew all along
Because everything I've been working for
Was only worth nickels and dimes
But if I had a minute for every hour that I've wasted
I'd be rich in time, I'd be doing fine
Without you I was broken
But I'd rather be broke down with you by my side





Comments


Popular Jack Johnson tabs & chords
F-Stop Blues Bass Tabs
At Or With Me Chords
Fall Line Chords
Flake 4 Chords
Times Like These Chords
F Stop Blues 3 Tabs
In The Morning Tabs
Thicker Than Water Tabs
Traffic In The Sky Intro 1 Tabs
Upside Down 4 Tabs


Song lyrics



↑ Back to top | Tablatures and chords are parodies/interpretations of the original songs. You may use it for private study, scholarship, research or language learning purposes only
© 2014 AZChords.com Contact us | Privacy policy | DMCA | Add/correct tabs | Request tabs | Top 50 tabs