» » »

Jack Johnson, Broken Tabs (ver.1)

Artists:  A B C D E F G H I J K L M N O P Q R S T U V W X Y Z # 

Broken Tabs (ver.1)

Jack Johnson Tabs
 Rating:
4/5 (4 votes)
Broken lessons Tabs too difficult? Try these video lessons and learn fast
1
                Jack Johnson Broken
This is another swell song by Jack
Capo 2nd fret
Chords
c    F?  Dm
-    -   1
1    1   3
-    2   2
2(h) 3   -
3    x   x
x    x   x

Intro
C C C C

Verse
C C C C
F F C C
F F C C

Chorus
Dm F C C
Dm F C C

Intro Lead

------------------------------------|
-----5---------7-5------------------|
-----5-------5-----7-5h7p5----------|
---------5h7-----------------5--5---|
-5/7---7-------------------7------7-|
------------------------------------|

-----------------------------------|
-----5---------8-5-----------------|
-----5-------5-----7-5h7p5---5-5---|
---------5h7---------------7-----7-|
-5/7---7---------------------------|
-----------------------------------|

Solo
                         (palm mute)
-----------------------------------1-0---0h1p0h1---------|
-1-3/5-5-3-1-1-----------------(1)-----1-----------------|
---------------2-5/2-2/0-0-(0-2)-----------------5/3-3-1-|
---------------------------------------------------------|
---------------------------------------------------------|
---------------------------------------------------------|

-----------------------|
---------1h3p1---1h3p1-|
---------------2-------|
-----------------------|
-----------------------|
-8-8/5-5---------------|

this bit is weird because in the he doesnt have a capo on so you cant get the low notes 
uses. so this is a version for a capo and for no capo

Capo

-----------------------|
-------------------3-1-|
-2-0-----------0-2-----|
-----2-0-2-3-3---------|
-----------------------|
-----------------------|

NO Capo

-----------------------|
-----------------------|
-----------------------|
-------------------2-0-|
-2-0-----------0-2-----|
-----2-0-2-3-3---------|

this is the end to each bit this is the same for both only no capo you add 2 to it...

---------------------|
---------1-----------|
-----0h2---0h2-0-----|
-0h2-------------2-0-|
---------------------|
---------------------|

Repeat this 2 times

Finish the solo with this

-------------|
-----1-3-3/5-|
-0-2---------|
-------------|
-------------|
-------------|

And that's it....
            
Submit corrections

comments powered by Disqus
↑ Back to top | Jack Johnson Tabs for Broken. Lyrics for acoustic guitar and electric guitar. 1 Tablatures and chords are parodies/interpretations of the original songs. You may use it for private study, scholarship, research or language learning purposes only