» » »

Jack Johnson, Breakdown Tabs (ver.1)

Artists:  A B C D E F G H I J K L M N O P Q R S T U V W X Y Z # 

Breakdown Tabs (ver.1)

Jack Johnson Tabs
 Rating:
3.7/5 (6 votes)
Breakdown lessons Tabs too difficult? Try these video lessons and learn fast
1
                Please have a look at some of my mp3s:

VERSE: These are the chords and the pick pattern I use. It's close to the album:
A--------3----------------2-------------0------------2----------|l
E------0---0--0---------3---3--3------0--0--0------3---0---0----|l
C----0-------0--------4------4------0-----0------2-------0------|l
G--0----------------4-------------2------------0----------------|l
         C               Em            Am             G
(Repeat) x6


CHORUS: Strum C-Em-Am-G. (Strumming pattern is dduudu)


Bridge:
A---3---3---3---3---3---2---2---0---0----|l
E---0---0---0---0---0---3---3---1---1----|l
C---0---0---0---0---0---2---2---0---0----|l
G---0---0---0---0---0---0---0---2---2----|l
    d   d   u   d   u   d   d   d   d


Solo:
A--3-0-----------------3-0----------------------|l
E------3------3------------3------3-------l-----|    x2
C--------2s4---4s2-0---------2s4---4------------|l
G-----------------------------------------------|l


A-3s5-3-0-7-5-3------3s5-3-0-7-5----------|l
E-3s5-3-0-8-5-3------3s5-3-0-8-5----------|l
C-----------------------------------------|l
G-----------------------------------------|l


A-3s5-3-0-10--8-7----3s5-3-0-7-5-3--------|l
E-3s5-3-0-12-10-8----3s5-3-0-8-5-3--------|l
C-----------------------------------------|l
G-----------------------------------------|l
            
Submit corrections

comments powered by Disqus
↑ Back to top | Jack Johnson Tabs for Breakdown. Lyrics for acoustic guitar and electric guitar. 1 Tablatures and chords are parodies/interpretations of the original songs. You may use it for private study, scholarship, research or language learning purposes only