» » »

Breakdown Bass tabs (ver.1)

Artists:  A B C D E F G H I J K L M N O P Q R S T U V W X Y Z # 

Breakdown Bass tabs (ver.1)

Jack Johnson
Rating:
0/5 (0 votes)

Hard to play? Try these video lessons and learn fast.
                Intro. 0.00 - 0.26

Verse 1.

E-8-8--10/--7-7--7----5-5--5----3-3--3/---------------------|
A-----------------------------------------------------------|
D-----------------------------------------------------------| x 2
G-----------------------------------------------------------|

Chrous.

E-8-8--10/--7-7--7----5-5--5----3-3--3/---------------------|
A-----------------------------------------------------------|
D-----------------------------------------------------------| x 2
G-----------------------------------------------------------|

End chrous on

E-8-------

Verse 2. Listen for when the bass enter again

E-8-8--10/--7-7--7----5-5--5----3-3--3/---------------------|
A-----------------------------------------------------------|
D-----------------------------------------------------------| x 4
G-----------------------------------------------------------|

Chrous.

E-8-8--10/--7-7--7----5-5--5----3-3--3/---------------------|
A-----------------------------------------------------------|
D-----------------------------------------------------------| x 4
G-----------------------------------------------------------|

Breakdown. 1.56 - 2.09

E-----------3-3--1-1---------------------------------------------|
A-3-3--3------------------4th time end on-3----------------------|
D----------------------------------------------------------- x 4-|
G----------------------------------------------------------------|

Lead into Verse 3. 2.19 - 2.21

E--------1515--15/----------|
A-15-14---------------------|
D---------------------------|
G---------------------------|

Verse 3.

E-8-8--10/--7-7--7----5-5--5----3-3--3/---------------------|
A-----------------------------------------------------------|
D-----------------------------------------------------------| x 2
G-----------------------------------------------------------|

Chrous.

E-8-8--10/--7-7--7----5-5--5----3-3--3/---------------------|
A-----------------------------------------------------------|
D-----------------------------------------------------------| x 4
G-----------------------------------------------------------|

Listen as bass enters again at the End of the Song play the same as the chrous
            
Hard to play? Try these video lessons and learn fast. | Correct




comments powered by Disqus
↑ Back to top | Tablatures and chords are parodies/interpretations of the original songs. You may use it for private study, scholarship, research or language learning purposes only