» » »

Carry Tabs (ver.1)

Artists:  A B C D E F G H I J K L M N O P Q R S T U V W X Y Z # 

Carry Tabs (ver.1)

Isis
Rating:
5/5 (3 votes)

Hard to play? Try these video lessons and learn fast.
                Tuning: Drop B (B F# B E G# C#)



~~~LEAD GUITAR~~~




Intro - 1:43 32nd Note Delay
|-13~----15~--12~--13~----15~--12~--|
|-----------------------------------|
|-----------------------------------|
|-----------------------------------|
|-----------------------------------|
|-----------------------------------|

 2:01 Tremelo Pick - Repeat 2x
|-17--15--13--15--17--15--13--10-|
|--------------------------------|
|--------------------------------|
|--------------------------------|
|--------------------------------|
|--------------------------------|

 2:35 - Repeat 2x
|-----------------------------------------------------------|
|-----------------------------------------------------------|
|-----------------------------------------------------------|
|-/7h10p7~--7\2~--2/3-5~--7-5~--/7h10p7~--7\2~--2/3-5~--5-7-|
|-------------------------------------------------------3-5-|
|-----------------------------------------------------------|

 3:09 Lead Riff - Repeat until 4:00
|-------17---17p13-15---13-12-10------10-12-10-15-17-15-12-|
|-17h18----------------------------13----------------------|
|----------------------------------------------------------|
|----------------------------------------------------------|
|----------------------------------------------------------|
|----------------------------------------------------------|

 4:00 - Heavy Riff
|--------------------------------------------------------------------------------------------|
|-10-10-10-10-10-10-10-8-8-8-8-8-10-10-10-10-11-11-11-11-11-11-11-15-15-15-15-13-13-13-13-13-|
|--------------------------------------------------------------------------------------------|
|--------------------------------------------------------------------------------------------|
|--------------------------------------------------------------------------------------------|
|--------------------------------------------------------------------------------------------|
    2nd Time (last 5 notes)
    |-17^-17^-17^-17^-17^-|

 4:32 - Both Gtrs
|----------------------------------------------------------------|
|--------3-3-3-3-------------------------------------------------|
|--------2-2-2-2-------------------------------------------------|
|-0--0-0-0-0-0-0-0-0-0-0-3-3-3-3-5-5-5-5-5-5-5-5-5-5-5-5-3-3-3-3-|
|-0--0-0-0-0-0-0-0-0-0-0-3-3-3-3-5-5-5-5-5-5-5-5-5-5-5-5-3-3-3-3-|
|-0--0-0-0-0-0-0-0-0-0-0-3-3-3-3-5-5-5-5-5-5-5-5-5-5-5-5-3-3-3-3-|

 5:04 - Repeat "Heavy Riff" 4x

 5:35 - Clean (no dist) Play 4x
|-----------------------------------------|
|---10-10--10---10-10---10-10---10-10-8-8-|
|---9--9---9----9--9----9--9----9--9--7-7-|
|---7--7---7----7--7----7--7----7--7--5-5-|
|---7--7---7----7--7----7--7----7--7--5-5-|
|-----------------------------------------|

 5:50 HEAVY Distortion - Play 8x
|-----------------------------------|
|-----------------------------------|
|---9-9--9---9-9---7-7-7---10-10-10-|
|---7-7--7---7-7---5-5-5---8--8--8--|
|---7-7--7---7-7---5-5-5---8--8--8--|
|---7-7--7---7-7---5-5-5---8--8--8--|

 6:21 Bridge - Play 2x
|-----------------------------------------------------------------|
|-----------------------------------------------------------------|
|-----------------------------------------------------------------|
|-5-5---5-5-5-5-5---3-3-3---3-3-3---0-0---0-0-0-0---0-0-0---0-0-0-|
|-5-5---5-5-5-5-5---3-3-3---3-3-3---0-0---0-0-0-0---0-0-0---0-0-0-|
|-5-5---5-5-5-5-5---3-3-3---3-3-3---0-0---0-0-0-0---0-0-0---0-0-0-|

 6:37 - IN WATER!!
|---------------------------------------------------------------------|
|---------------------------------------------------------------------|
|---------------------------------------------------------------------|
|-0-0---0-0-0-0---0-0-0---0-0-0----0-0---0-0-0-0---0-0-0---0-0-0------|
|-0-0---0-0-0-0---0-0-0---0-0-0----0-0---0-0-0-0---0-0-0---0-0-0------|
|-0-0---0-0-0-0---0-0-0---0-0-0----0-0---0-0-0-0---0-0-0---0-0-0------|



~~~RHYTHM GUITAR~~~



 2:01 - 3:43 Clean w/ Reverb
|---------------------------------------|
|--10-----10-8-----8--11-----11--8---8--|
|--9------9--7-----7--10-----10--7---7--|
|--7---------5--------8----------5------|
|--7---------5--------8----------5------|
|--7---------5--------8----------5------|
(Not quite sure of this riff, tough to hear)

 3:43             2x  3:57 - repeat and get louder
|-------------------|-------------------------|
|-------------------|-10-10-10-10-10-10-10-10-|
|------10--------9--|-9--9--9--9--9--9--9--9--|
|----8---------7----|-7--7--7--7--7--7--7--7--|
|--8---------7------|-7--7--7--7--7--7--7--7--|
|-------------------|-7--7--7--7--7--7--7--7--|

 4:00 - Heavy Riff (distortion) (4x)
|-----------------------------------------------------------------|
|-----------------------------------------------------------------|
|-----------------------------------------------------------------|
|-0-0-0-0-0-0-0-0-0-0-0-0-3-3-3-3-5-5-5-5-5-5-5-5-5-5-5-5-3-3-3-3-|
|-0-0-0-0-0-0-0-0-0-0-0-0-3-3-3-3-5-5-5-5-5-5-5-5-5-5-5-5-3-3-3-3-|
|-0-0-0-0-0-0-0-0-0-0-0-0-3-3-3-3-5-5-5-5-5-5-5-5-5-5-5-5-3-3-3-3-|

Rest of the song is the same as the lead guitar. You can change
any fretting if you thing it balances more accurately.

Thanks for playing! Send feedback.
            
Hard to play? Try these video lessons and learn fast. | Correct




comments powered by Disqus
↑ Back to top | Tablatures and chords are parodies/interpretations of the original songs. You may use it for private study, scholarship, research or language learning purposes only