» » »

Isis, Carry Tabs (ver.2)

Artists:  A B C D E F G H I J K L M N O P Q R S T U V W X Y Z # 

Carry Tabs (ver.2)

Isis Tabs
 Rating:
4.2/5 (5 votes)
Carry lessons Tabs too difficult? Try these video lessons and learn fast
                Tuning (this tab): Drop B Tab difficulty: intermediate
Carry by Isis . From   Panopticon  album
Tuning Drop B : B F# B E G# C#
This is just how I play it.
I didn't really check the videos for this one but I've seen 'em play some chords
similar to the last one in RIFF 1B...

Intro: Volume effect: let ring each
----------------------------------------------------------------------------|
----------------------------------------------------------------------------|
----------10----------------------------------------------------------------|
-----------8----5-----------------------------------------------------------|
--5-------------7-----------------------------------------------------------|
--0---7----5----------------------------------------------------------------|

1:43 Right channel : Tremolo effect
--13-----15-----12-----13-----15-----12-------|
----------------------------------------------|
----------------------------------------------|
----------------------------------------------|
----------------------------------------------|
----------------------------------------------|

2:00 Right channel : hi pickup  ,   Lots of reverb
Guitar on right channel keeps playing this, but simplified, for all the rest of the intro
------5-------3---------6--8/--3----------------------|
------6---8/--5---------8--8/--5----------------------|
--5/7-7-------5------7--7------5----------------------|
------0------------------------------Played-3-Times---|
------------------------------------------------------|
------------------------------------------------------|
Let ring the hi open B throughout

Modification on the 4th time:
-------5-------3------------------|
-------6---8/--5----6--5--3--3----|
--5/7--7-------5----7--5-----2----|
-------0------------0--0-----0----|
-----------------------------0----|
----------------------------------|

2:01 Left channel
---17-----15-----13----15---/---17----15-----13------10---------------------|
----------------------------/-----------------------------------------------|
----------------------------/-----------------------------------------------|
----------------------------/-------------------------------Played 2 Times--|
----------------------------/-----------------------------------------------|
----------------------------/-----------------------------------------------|

2:35 Left channel
---------------------------------------------------------------------------|
---------------------------------------------------------------------------|
---------------------------------------------------------------------------|
---7h10r7----10//////-2---2-3-5--(5)/7-5---7h10r7--10///-2--5-7-8---7--5---|
---------------------------------------------------------------------------|
---------------------------------------------------------------------------|

2:52 Left channel (...suite)
---------------------------------------------------------------------------|
---------------------------------------------------------------------------|
---------------------------------------------------------------------------|
-----7h10r7----10//////-2---2-3-5----------7h10r7--10///-2--2-3-5----------|
------------------------------------5-3---------------------------3--5-----|
---------------------------------------------------------------------------|

3:09 Left channel
--12-13-17---17-12-15---13-12-10------12-13-12--15-17-15-12------------|
----------------------------------11-----------------------------------|
-----------------------------------------------------------------------|Played 6 times
-----------------------------------------------------------------------|
-----------------------------------------------------------------------|
-----------------------------------------------------------------------|

4:00 RIFF 1A (Left channel)
-----------------------------------6666666--10101010--99999-------------------|
--10101010101010--88888--10101010--8888888--10101010--88888-------------------|
---7-7-7-7-7-7-7--55555---7-7-7-7--0000000---0-0-0-0--00000-------------------|
---0-0-0-0-0-0-0--00000---0-0-0-0-----------------------------Played 2 times--|
------------------------------------------------------------------------------|
------------------------------------------------------------------------------|

3rd & 4th time (end variation) (bend last chord only the last time the riff is played)
------------------------------------6666666--10101010--12121212--|
---10101010101010--88888--10101010--8888888--10101010--11111111--|
----7-7-7-7-7-7-7--55555---7-7-7-7--0000000---0-0-0-0---0-0-0-0--|
----0-0-0-0-0-0-0--00000---0-0-0-0-------------------------------|Played 2 times
-----------------------------------------------------------------|
-----------------------------------------------------------------|

4:00 RIFF 1B (Right channel)
--------5555-----------------------------3333-----------------------------|
--------XXXX-----------------------------5555-----------------------------|
--------7777-----------------------------2222-----------------------------|
--0000--7777--0000--3333--55555555555--0-2222--------Played 4 times-------|
--0000--5555--0000--3333--55555555555--0-2222-----------------------------|
--0000--------0000--3333--55555555555--0-2222-----------------------------|


4:32 Unison of The Two guitars & channels
--------5555------------------------------------------------------------|
--------XXXX------------------------------------------------------------|
--------7777--------------77777779777-----------------------------------|
--0000--7777--0000--3333--55555557555---22222---------------------------|
--0000--5555--0000--3333--55555555555---22222---------------------------|
--0000--------0000--3333--55555555555---22222---------------------------|

  It might not be there but it sounds like some Third guitar plays this: (sounds 
cool to me anyways)
------------------------------------------------------------------------|
---101010--8-10-8-1010-8-1010-------------------------------------------|
----7-7-7--7--7-7--7-7-7--7-7-------------------------------------------|
----0-0-0-10--0-10-0-0-10-0-0...etc-------------------------------------|
------------------------------------------------------------------------|
------------------------------------------------------------------------|


5:03 ----Back to Riff 1A----(Both guitars & channels)-------------------


5:35
------------------------------------------------------------------------|
------------------------------------------------------------------------|
---1414--14--1414--1414--1414--1212-------------------------------------|
---1212--12--1212--1212--1212--1010-------------------------------------|
------------------------------------------------------------------------|
--0----0---0-----0-----0----------------Played 4 times------------------|
  pm   pm  pm    pm    pm

5:50
------------------------------------------------------------------------|
----------------------------111111--------------------------------------|
---1414--14--1414--121212----8-8-8--------------------------------------|
---1212--12--1212--101010-----------------------------------------------|
------------------------------------------------------------------------|
--0----0----0-----0-------0------------Played 8 times-------------------|
  pm   pm   pm    pm      pm

6:22
------------------------------------------------------------------------|
------------------------------------------------------------------------|
------------------------------------------------------------------------|
--33-3333--222--222----77-7777--777--777--------------------------------|
--33-3333--222--222----55-5555--555--555--------------------------------|
--33-3333--222--222----00-0000--000--000----Played 2 times--------------|


------------------------------------------------------------------------|
------------------------------------------------------------------------|
------------------------------------------------------------------------|
--77-7777--777--777-----------------------------------------------------|
--55-5555--555--555-----------------------------------------------------|
--00-0000--000--000----------Played 2 times-----------------------------|

/=slide
h=hammer on
r= release
pm=palm mute

Listen to record for the rhythm.
Comments or improvements welcome. Enjoy!
More Isis tabs to come.
            
Submit corrections

comments powered by Disqus
↑ Back to top | Isis Tabs for Carry. Lyrics for acoustic guitar and electric guitar. Tablatures and chords are parodies/interpretations of the original songs. You may use it for private study, scholarship, research or language learning purposes only