» » »

It Comes Naturally Tabs (ver.2)

Artists:  A B C D E F G H I J K L M N O P Q R S T U V W X Y Z # 

It Comes Naturally Tabs (ver.2)

I Set My Friends On Fire
Rating:
0/5 (0 votes)

Hard to play? Try these video lessons and learn fast.
                Band: I Set My Friends On Fire
Tuning: Drop C

First verse:
D|------------------|-------|--------|
A|------------------|-[1st]-|-[2nd]--|
F|------------------|-------|--------|
C|-8-8---8-8-8-[x2]-|-------|-1/12\1-|
G|-7-7---7-7-7------|-4-3-2-|-1/12\1-|
C|-8-8-0-8-8-8------|-5-4-3-|-1/12\1-|
       .              . . .
D|------------------|-------|-------------|
A|------------------|-[1st]-|----[2nd]----|
F|------------------|-------|-------------|
C|-6-6---6-6-6-[x2]-|-------|-------------|
G|-5-5---5-5-5------|-2-1-0-|-222-111-000-|
C|-6-6-0-6-6-6------|-3-2-1-|-333-222-111-|
       .              . . .   ... ... ...
D|------------------|
A|------------------|
F|------------------|
C|------------------|
G|------------------|
C|-0-0~~~-----------|

Chorus:
D|----------------------------------------------------------------|[x2]
A|----------------------------------------------------------------|
F|-7-7-7-7-7---7-7-7-7-7---7-7-7-7-3-3-3-3-3---3-3-3-3-3---3-3-3-3|
C|-7-7-7-7-7---7-7-7-7-7---7-7-7-7-3-3-3-3-3---3-3-3-3-3---3-3-3-3|
G|-5-5-5-5-5---5-5-5-5-5---5-5-5-5-1-1-1-1-1---1-1-1-1-1---1-1-1-1|
C|----------------------------------------------------------------|

D|----------------------------------------------------------------|
A|----------------------------------------------------------------|
F|---------------------------------3-3-3-3-3-3-3-3-3-3-3-3-3-3-3-3|
C|-3-3-3-3-3-3-3-3-3-3-3-3-3-3-3-3-3-3-3-3-3-3-3-3-3-3-3-3-3-3-3-3|
G|-3-3-3-3-3-3-3-3-3-3-3-3-3-3-3-3-1-1-1-1-1-1-1-1-1-1-1-1-1-1-1-1|
C|-3-3-3-3-3-3-3-3-3-3-3-3-3-3-3-3--------------------------------|

D|----------------------------------------------------------------|
A|----------------------------------------------------------------|
F|-7-7-7-7-7---7-7-7-7-7---7-7-7-7-3-3-3-3-3-3-3-3-3-3-3-3-3-3-3-3|
C|-7-7-7-7-7---7-7-7-7-7---7-7-7-7-3-3-3-3-3-3-3-3-3-3-3-3-3-3-3-3|
G|-5-5-5-5-5---5-5-5-5-5---5-5-5-5-1-1-1-1-1-1-1-1-1-1-1-1-1-1-1-1|
C|----------------------------------------------------------------|

Second verse:
D|----|
A|----|
F|-7~-|
C|-x--|
G|-5~-|
C|----| the rest is just instrumental

Chorus:
D|----------------------------------------------------------------|[x2]
A|----------------------------------------------------------------|
F|-7-7-7-7-7---7-7-7-7-7---7-7-7-7-3-3-3-3-3---3-3-3-3-3---3-3-3-3|
C|-7-7-7-7-7---7-7-7-7-7---7-7-7-7-3-3-3-3-3---3-3-3-3-3---3-3-3-3|
G|-5-5-5-5-5---5-5-5-5-5---5-5-5-5-1-1-1-1-1---1-1-1-1-1---1-1-1-1|
C|----------------------------------------------------------------|

D|----------------------------------------------------------------|
A|----------------------------------------------------------------|
F|---------------------------------3-3-3-3-3-3-3-3-3-3-3-3-3-3-3-3|
C|-3-3-3-3-3-3-3-3-3-3-3-3-3-3-3-3-3-3-3-3-3-3-3-3-3-3-3-3-3-3-3-3|
G|-3-3-3-3-3-3-3-3-3-3-3-3-3-3-3-3-1-1-1-1-1-1-1-1-1-1-1-1-1-1-1-1|
C|-3-3-3-3-3-3-3-3-3-3-3-3-3-3-3-3--------------------------------|

D|----------------------------------------------------------------|
A|----------------------------------------------------------------|
F|-7-7-7-7-7---7-7-7-7-7---7-7-7-7-3-3-3-3-3-3-3-3-3-3-3-3-3-3-3-3|
C|-7-7-7-7-7---7-7-7-7-7---7-7-7-7-3-3-3-3-3-3-3-3-3-3-3-3-3-3-3-3|
G|-5-5-5-5-5---5-5-5-5-5---5-5-5-5-1-1-1-1-1-1-1-1-1-1-1-1-1-1-1-1|
C|----------------------------------------------------------------|

Breakdown:
D|----10~---10~---10~---10~-[x4]--|
A|-14~---14~---14~---14~----------|
F|--------------------------------|
C|--------------------------------|
G|--------------------------------|
C|--------------------------------|

D|-------------------------------------------------|
A|-------------------------------------------------|
F|-------------------------------------------------|
C|-000000000--00-0-00-0--000000000--0-00-00-0-[x2]-|
G|-000000000--00-0-00-0--000000000--0-00-00-0------|
C|-000000000--00-0-00-0--000000000--0-00-00-0------|
   .........  .. . .. .  .........  . .. .. .

D|-------------------------------------------------------------------|
A|-------------------------------------------------------------------|
F|-------------------------------------------------------------------|
C|-333333333~-3333-33-3~-888888888~-8888-88-8~-000000000~-0000-00-0~-|
G|-333333333~-3333-33-3~-888888888~-8888-88-8~-000000000~-0000-00-0~-|
C|-333333333~-3333-33-3~-888888888~-8888-88-8~-000000000~-0000-00-0~-|
   ........   .... ..    ........   .... ..    ........   .... ..

D|-----------------------|
A|-----------------------|
F|-----------------------|
C|-888888888~-8888-8-8-8-|
G|-888888888~-8888-8-8-8-|
C|-888888888~-8888-8-8-8-|
   ........   ....

Chorus:
D|----------------------------------------------------------------|[x2]
A|----------------------------------------------------------------|
F|-7-7-7-7-7---7-7-7-7-7---7-7-7-7-3-3-3-3-3---3-3-3-3-3---3-3-3-3|
C|-7-7-7-7-7---7-7-7-7-7---7-7-7-7-3-3-3-3-3---3-3-3-3-3---3-3-3-3|
G|-5-5-5-5-5---5-5-5-5-5---5-5-5-5-1-1-1-1-1---1-1-1-1-1---1-1-1-1|
C|----------------------------------------------------------------|

D|-------------------------------------------------------------------|
A|-------------------------------------------------------------------|
F|-----------------------3-3-3-3-3~-333333333~-----------------------|
C|-3-3-3-3-3~-333333333~-3-3-3-3-3~-333333333~-0-0-0-0-0--000000000~-|
G|-3-3-3-3-3~-333333333~-1-1-1-1-1~-111111111~-0-0-0-0-0~-000000000~-|
C|-3-3-3-3-3~-333333333~-----------------------0-0-0-0-0~-000000000~-|
   . . . .    ........   . . . .    ........   . . . .    ........
D|--------------------------------|
A|--------------------------------|
F|-3-3-3-3-3-3-3-3-3-3-3-3-3-3-3-3|
C|-3-3-3-3-3-3-3-3-3-3-3-3-3-3-3-3|
G|-1-1-1-1-1-1-1-1-1-1-1-1-1-1-1-1|
C|--------------------------------|

Ending:
GUITAR 1
D|--------------------|
A|--------------------|
F|-12\10--10\9--9/10~-|
C|-x--x---x--x--x-x---|
G|-10\8---8-\7--7/8~--|
C|--------------------|

GUITAR 2
D|----------------------|
A|----------------------|
F|-15\14--14\12--12/14~-|
C|-x--x---x--x---x--x---|
G|-13\12--12\10--10/12~-|
C|----------------------|
            
Hard to play? Try these video lessons and learn fast. | Correct




comments powered by Disqus
↑ Back to top | Tablatures and chords are parodies/interpretations of the original songs. You may use it for private study, scholarship, research or language learning purposes only