» » »

It Comes Naturally Tabs (ver.1)

Artists:  A B C D E F G H I J K L M N O P Q R S T U V W X Y Z # 

It Comes Naturally Tabs (ver.1)

I Set My Friends On Fire
Rating:
4/5 (1 vote)

Hard to play? Try these video lessons and learn fast.
                First tab I've written don't hate

d|-----------------------------------------|
a|-----------------------------------------|
f|----3-3---3-3-3---3-3---3-3-3------------| (x4)
c|----2-2---2-2-2---2-2---2-2-2------------|
g|----1-1---1-1-1---1-1---1-1-1----0-0-0---|
c|-------1-------------1-----------1-1-1---|
         *             *           * * *

 |---------|
 |---------|
 |---------|
 |---------|
 |---------|
 |--1b0~---|


Chorus:

 |------------------------------------------------------------|
 |------------------------------------------------------------|
 |---7-7-7-7---7-7-7-7---7-7-7---3-3-3-3---3-3-3-3---3-3-3----| (x2)
 |---7-7-7-7---7-7-7-7---7-7-7---3-3-3-3---3-3-3-3---3-3-3----|
 |---5-5-5-5---5-5-5-5---5-5-5---1-1-1-1---1-1-1-1---1-1-1----|
 |------------------------------------------------------------|



 |-------------------------------------------|
 |-------------------------------------------|
 |-------------------------------------------|
 |---3---------3---------0---------3---------|
 |---3-(x16)---3-(x16)---0-(x16)---3-(x16)---|
 |---3---------1---------0---------1---------|

Synth, Then Chorus



Breakdown

 |------------------------------------------------------------------------|
 |---14-------------------------------------------------------------------|
 |---17-------------------------------------------------------------------|
 |------000000000~---000000~-------333333333~---333333~-------333333333~--|
 |------000000000~---000000~-(x2)--333333333~---333333~-(x2)--333333333~--|
 |------000000000~---000000~-------333333333~---333333~-------111111111~--|


 ------------------------------|
 ------------------------------|
 ------------------------------|
 ---333333~--------------------|
 ---333333~-(x2)---------------|
 ---111111~--------------------|

Chorus:


THE END! hope it helped
            
Hard to play? Try these video lessons and learn fast. | Correct




comments powered by Disqus
↑ Back to top | Tablatures and chords are parodies/interpretations of the original songs. You may use it for private study, scholarship, research or language learning purposes only