» » »

I Set My Friends On Fire, Brief Interviews With Hideous Men Tabs (ver.2)

Artists:  A B C D E F G H I J K L M N O P Q R S T U V W X Y Z # 

Brief Interviews With Hideous Men Tabs (ver.2)

I Set My Friends On Fire Tabs
 Rating:
4/5 (5 votes)
Brief Interviews With Hideous Men lessons Tabs too difficult? Try these video lessons and learn fast
1
                Brief Interviews With Hideous Men by I Set My Friends On Fire

Tuning:Drop C

This song is pretty straightforward.

|--------------------------------|
|--------------------0~----------|
|--------------------0~----------|
|--2-----2-----5/10-------2------|
|--2-----2-----5/10-------2------|
|--2-----2-----5/10-------2------|

|---------------------------------------------------------------------------|
|---------------------------------------------------------------------------|
|---------------------------------------------------------------------------|
|--2--------5-------9-------10------9------0------2------5------9-----------|
|--2-(x16)--5-(x16)-9-(x4)--10-(x8)-9-(x6)-0-(x2)-2-(x8)-5-(x4)-9-(x4)------|
|--2--------5-------9-------10------9------0------2------5------9-----------|

|----------------|
|----------------|
|----------------|
|--10-10-10-10---|
|--10-10-10-10---|
|--10-10-10-10---|(x4)

|-----------------------------------------------|
|-----------------------------------------------|
|-----------------------------------------------|
|--0-2------5------9------10------10------0-----|
|--0-2-(x8)-5-(x4)-9-(x4)-10-(x4)-10-(x4)-0-----|
|--0-2------5------9------10------10------0-----|

|--------------------|
|--------------------|
|--------------------|
|--2-2-2---2-2-2-----|
|--2-2-2---2-2-2-----|
|--2-2-2---2-2-2-----|
   * * *   * * *

|------------------------------------------|
|------------------------------------------|
|------------------------------------------|
|--2-2-2----2-22-2-2-2--------4-3-2-3-2-1--|
|--2-2-2----2-22-2-2-2--(x4)--4-3-2-3-2-1--|
|--3-3-3----3-33-3-3-3--------5-4-3-4-3-2--|
   * * *    * ** * * *        * * * * * *

|---------------------------------------------------------------------------------------|
|---------------------------------------------------------------------------------------|
|---------------------------------------------------------------------------------------|
|-0-0-0---0-00-0-0-0---0-0-0-0-0---4-3-2-3-2-1-0-0-0-4-3-2-3-2-1-0-0-0-0--4-3-2-3-2-1---|
|-0-0-0---0-00-0-0-0---0-0-0-0-0---4-3-2-3-2-1-0-0-0-4-3-2-3-2-1-0-0-0-0--4-3-2-3-2-1---|
|-1-1-1---1-11-1-1-1---1-1-1-1-1---5-4-3-4-3-2-1-1-1-5-4-3-4-3-2-1-1-1-1--5-4-3-4-3-2---|
  * * *   * ** * * *   * * * * *   * * * * * * * * * * * * * * * * * * *  * * * * * *


| /  slide up
| \  slide down
| h  hammer-on
| p  pull-off
| ~  vibrato
| +  harmonic
| x  Mute note
===============================================================================
            
Submit corrections

comments powered by Disqus
↑ Back to top | I Set My Friends On Fire Tabs for Brief Interviews With Hideous Men. Lyrics for acoustic guitar and electric guitar. 1 Tablatures and chords are parodies/interpretations of the original songs. You may use it for private study, scholarship, research or language learning purposes only