» » »

I Set My Friends On Fire, Brief Interviews With Hideous Men Tabs (ver.1)

Artists:  A B C D E F G H I J K L M N O P Q R S T U V W X Y Z # 

Brief Interviews With Hideous Men Tabs (ver.1)

I Set My Friends On Fire Tabs
 Rating:
4.3/5 (6 votes)
Brief Interviews With Hideous Men lessons Tabs too difficult? Try these video lessons and learn fast
                Song Title: Brief Interviews With Hideous Men
Band: I Set My Friends On Fire


Tuning: Drop D (D-A-D-G-B-E)

its a really easy song, and pretty fun to play :) 

i think this tab is pretty accurate
if i messed up anywhere, its probably in the breakdown
if you have any corrections, tell me :) 
This is my first tab, so go easy on me, haha





(the enjoyment...)
0:15 - 0:29
e|------------------------------------------------------------------|
B|------------------------------------------------------------------|
G|-----------------------------3-------2----------------------------|
D|-0-------------0-------------3-------2-------------0--------------|
A|-0-------------0-------------1-------0-------------0--------------|
D|-0-------------0-----------------------------------0--------------|



(Oh just look at all the pretty boggling array...)
0:30 - 0:40
e|------------------------------------------------------------------|
B|------------------------------------------------------------------|
G|------------------------------2--2-----3--------------------------|
D|-0-------------3--------------2--2-----3---(x14)------------------|
A|-0---(x16)-----3---(x12)------0--0-----1--------------------------|
D|-0-------------3--------------------------------------------------|


(Might even meet our proposal...)
0:41 - 0:44
e|------------------------------------------------------------------|
B|------------------------------------------------------------------|
G|----------------------------------2-------------------------------|
D|-3-3-----0------------3-----------2---(x4)------------------------|
A|-3-3-----0---(x8)-----3---(x4)----0-------------------------------|
D|-3-3-----0------------3-------------------------------------------|


(Hot flashes...)
0:45 -  0:55
e|------------------------------------------------------------------|
B|------------------------------------------------------------------|
G|-3-3-3-3-----------2-------------------------------2--------------|
D|-3-3-3-3---(x4)----2-----0------------3------------2---(x4)-------|
A|-1-1-1-1-----------0-----0---(x8)-----3---(x4)-----0--------------|
D|-------------------------0------------3---------------------------|


(rev up our engines...)
0:56 - 1:02
e|------------------------------------------------------------------|
B|------------------------------------------------------------------|
G|-3-3-3-3-----------2----------------------------------------------|
D|-3-3-3-3---(x4)----2-----0-0-0-----0-0-0--------------------------|
A|-1-1-1-1-----------0-----0-0-0-----0-0-0--------------------------|
D|-------------------------0-0-0-----0-0-0--------------------------|
PM                         * * *     * * *


(Dialogue all the sh*t you want...)
1:03 - 1:12
e|------------------------------------------------------------------|
B|------------------------------------------------------------------|
G|------------------------------------------------------------------|
D|------------------------------------------------------------------|
A|-1-1-1---1-1-1-1--1--1-1-1-1---1-1-1-1--1--1-1-1-1----------------|
D|-2-2-2---2-2-2-2--2--2-2-2-2---2-2-2-2--2--2-2-2-2----------------|
PM * * *   * * * *  *  * * * *   * * * *  *  * * * *


(the mare they mention...)
1:13 - 1:24
e|----------------------------------------------------------------------|
B|----------------------------------------------------------------------|
G|----------------------------------------------------------------------|
D|----------------------------------------------------------------------|
A|-1-1-1-1--1--1-1-1-1---5-4-3-4-3-2---1-1-1-1---1-1-1-1--1--1-1-1-11-1-|
D|-2-2-2-2--2--2-2-2-2---6-5-4-5-4-3---2-2-2-2---2-2-2-2--2--2-2-2-22-2-|
PM * * * *  *  * * * *   * * * * * *   * * * *   * * * *  *  * * * ** *


1:25 - 1:36
e|----------------------------------------------------------------------|
B|----------------------------------------------------------------------|
G|----------------------------------------------------------------------|
D|----------------------------------------------------------------------|
A|-5-4-3-4-3-2--1-1-1-1---5-4-3-4-3-2---1-1-1-1---5-4-3-4-3-2-----------|
D|-6-5-4-5-4-3--2-2-2-2---6-5-4-5-4-3---2-2-2-2---6-5-4-5-4-3-----------|
PM * * * * * *  * * * *   * * * * * *   * * * *   * * * * * *



And thats it!! :) 
            
Submit corrections

comments powered by Disqus
↑ Back to top | I Set My Friends On Fire Tabs for Brief Interviews With Hideous Men. Lyrics for acoustic guitar and electric guitar. Tablatures and chords are parodies/interpretations of the original songs. You may use it for private study, scholarship, research or language learning purposes only