» » »

I See Stars, Underneath Every Smile Tabs (ver.1)

Artists:  A B C D E F G H I J K L M N O P Q R S T U V W X Y Z # 

Underneath Every Smile Tabs (ver.1)

I See Stars Tabs
 Rating:
4/5 (4 votes)
Underneath Every Smile lessons Tabs too difficult? Try these video lessons and learn fast
1
                Tuning: Drop D
______________________________________________________________________________
Chorus:
Lead Guitar:
0:02
E---------------------------------------------------|
B------------------------13----13----13-------------|
G------10-14-10-14-10-------10----10----10-14-10-14-|
D---12----------------12----------------------------| x8
A---------------------------------------------------|
D---------------------------------------------------|

Rhythm Guitar:
0:02
E--------------------------------------------------|
B--------------------------------------------------|
G---7---------3---------5---------3--------5-------|
D---7--(x16)--3--(x16)--5--(x16)--3--(x8)--5--(x8)-| x2
A---5---------1---------3---------1--------3-------|
D--------------------------------------------------|

Pre-Verse:
Both Guitars:
0:24
E-------------|
B---6-6-6-6b~-|
G---9-9-9-9b~-|
D-------------|
A-------------|
D-------------|

Verse: x2
Lead Guitar:
0:27
E---------------------------------|
B---------------------------------|
G---------------------------------|
D---7777-7777-7777----------------|
A------------------8888-8888-8888-|
D---------------------------------|

0:30
E-----------------------------------------------------------------|
B--------------------------------6b---6b~-----6b---6b~--6b-6b-6b~-|
G--------------------------------9b---9b~-----9b---9b~--9b-9b-9b~-|
D-----------------------------------------------------------------|
A---101010-10101010-10101010-0-0----0-----0-0----0----------------|
D----------------------------0-0----0-----0-0----0----------------|
                             * *    *     * *    *
Rhythm Guitar:
0:27
E---------------------------------------------|
B---------------------------------------------|
G---------------------------------------------|
D---------------------------------------------|
A---5555-5555-5555-10101010-10101010-10101010-|
D---------------------------------------------|

0:30
E-------------------------------------------------------|
B----------------------6b---6b~-----6b---6b~--6b-6b-6b~-|
G----------------------9b---9b~-----9b---9b~--9b-9b-9b~-|
D-------------------------------------------------------|
A---7777-7777-7777-0-0----0-----0-0----0----------------|
D------------------0-0----0-----0-0----0----------------|
                   * *    *     * *    *
Pre-Breakdown:
Both Guitars:
0:50
E-----------------------------------------|
B-----------------------------------------|
G-----------------------------------------|
D-----------------------------------------|
A---0000--0~--0000--0~--0000--0~--0000--0-|
D---0000--0~--0000--0~--0000--0~--0000--0-|
    ****  *   ****  *   ****  *   ****  *
Breakdown:
Both Guitars:
1:01
E----------------------------------------|
B----------------------------------------|
G-----------------------3--------5-------|
D-----------------------x--(x4)--x--(x4)-| x4
A---0000-0000----0000---1--------3-------|
D---0000-0000----0000--------------------|
    **** ****    ****
Chorus:
Lead Guitar:
1:24
E---------------------------------------------------|
B------------------------13----13----13-------------|
G------10-14-10-14-10-------10----10----10-14-10-14-|
D---12----------------12----------------------------| x8
A---------------------------------------------------|
D---------------------------------------------------|

Rhythm Guitar:
1:24
E--------------------------------------------------|
B--------------------------------------------------|
G---7---------3---------5---------3--------5-------|
D---7--(x16)--3--(x16)--5--(x16)--3--(x8)--5--(x8)-| x2
A---5---------1---------3---------1--------3-------|
D--------------------------------------------------|

Pre-Verse:
Both Guitars:
1:46
E-------------|
B---6-6-6-6b~-|
G---9-9-9-9b~-|
D-------------|
A-------------|
D-------------|

Verse:
Lead Guitar:
1:49
E------------------------------------------|
B------------------------------------------|
G------------------------------------------|
D------------------------------------------|
A------------------------------------------|
D---0-0-14-0-15-0-14-0-12-0-14-0-12-0-10-0-|

1:52
E--------------------------------------|
B--------------------------------------|
G--------------------------------------|
D--------------------------------------|
A--------------------------------------|
D---0-0-14-0-15-0-14-0-8-0-7-0-5-0-7-0-|

1:55
E------------------------------------------|
B------------------------------------------|
G------------------------------------------|
D------------------------------------------|
A------------------------------------------|
D---0-0-14-0-15-0-14-0-12-0-14-0-12-0-10-0-|

1:58
E--------------------------------|
B--------------------------------|
G--------------------------------|
D--------------------------------|
A-----------------------------0~-|
D---12-0-10-0-8-0-7-0-5-0-3-0-1~-|
                              *
Rhythm Guitar:
1:49
E-------------------------------|
B-------------------------------|
G-------------------------------|
D-------------------------------| x3
A-------------------------------|
D---00---0--0---000---0--0----0-|

1:58
E--------------------------------|
B--------------------------------|
G--------------------------------|
D--------------------------------|
A-----------------------------0~-|
D---12-0-10-0-8-0-7-0-5-0-3-0-1~-|
                              *
Pre-Breakdown:
Lead Guitar:
2:01
E----------------------------------------|
B----------------------------------------|
G----------------------------------------|
D----------------------------------------| x2
A----------------------------------------|
D---1212-0-0-0-0-0-0-01010-0-0-088-0-0-0-|

Rhythm Guitar:
2:01
E----------------------------------|
B----------------------------------|
G----------------------------------|
D----------------------------------| x2
A----------------------------------|
D---1212--------------1010------88-|

Breakdown 2:
Both Guitars:
2:10
E----------------------------------------|
B----------------------------------------|
G----------------------------------------|
D----------------------------------------| x4
A----------------------------------------|
D---1212-0-0-0-0-0-0-01010-0-0-088-0-0-0-|

Bridge:
Lead Guitar:
2:28
E-------------------------------------------------|
B-------------------------------------------------|
G---10--------9--------7---------9--------10------|
D---x--(x16)--x--(x8)--x--(x24)--x--(x8)--x--(x8)-| x2
A---8---------7--------5---------7--------8-------|
D-------------------------------------------------|

Rhythm Guitar:
2:28
E----------------------------------------------------------|
B----------------------------------------------------------|
G---7---------5--------3--------7---------5--------3-------|
D---7--(x16)--5--(x8)--3--(x8)--7--(x16)--5--(x8)--3--(x8)-| x2
A---5---------3--------1--------5---------3--------1-------|
D----------------------------------------------------------|

Outro:
Lead Guitar:
2:45
E-------|
B-------|
G---10~-|
D---x~--
A---8~--|
D-------|

Rhythm Guitar:
2:45
E----------------------------------------|
B----------------------------------------|
G----------------------------------------|
D----------------------------------------| x2
A----------------------------------------|
D---1212-0-0-0-0-0-0-01010-0-0-088-0-0-0-|

Outro Part 2: x4
Lead Guitar:
2:54
E---13~-------13~-------13~-------13~-------|
B--------17~-------17~-------17~-------17~--|
G-------------------------------------------|
D-------------------------------------------|
A-------------------------------------------|
D-------------------------------------------|

E---12~-------12~-------12~-------12~-------|
B--------15~-------15~-------15~-------15~--|
G-------------------------------------------|
D-------------------------------------------|
A-------------------------------------------|
D-------------------------------------------|

Rhythm Guitar:
2:54
E----------------------------------------|
B----------------------------------------|
G----------------------------------------|
D----------------------------------------| x4
A----------------------------------------|
D---1212-0-0-0-0-0-0-01010-0-0-088-0-0-0-|

Legend:
~     Let the note ring
*     Palm Mute
b     Bend Note
x     Dead Note
            
Submit corrections

comments powered by Disqus
↑ Back to top | I See Stars Tabs for Underneath Every Smile. Lyrics for acoustic guitar and electric guitar. 1 Tablatures and chords are parodies/interpretations of the original songs. You may use it for private study, scholarship, research or language learning purposes only