>
 >
Underneath Every Smile 1

Underneath Every Smile 1 Guitar Tabs

I See Stars - Underneath Every Smile 1 chords, tabs, tablatures, lyrics

Guitar lessons | Add/correct | Request | Top 50 tabs Artists:  A B C D E F G H I J K L M N O P Q R S T U V W X Y Z 0-9

Underneath Every Smile 1 Guitar Tabs – I See Stars

CD, Sheet music, Poster

Do you like Underneath Every Smile 1? Share with your friends now
ChordsTabsTabs v2
----------------------------------------------------------------------------
                          Underneath Every Smile
                               I See Stars
----------------------------------------------------------------------------

Hello. This song is my favorite out of Digital Renegade. The 2nd Breakdown is amazing 
and easy. This song proves you don’t have to be an expert to have fun playing guitar. Enjoy!

Username: dkm817 (same on X box live)

Guitar 1 Rhythmic     (D A D G B E)
Guitar 2 Lead         (D A D G B E)


Tab Guide...

==================================================================
(end of measures)

==================================================================
==================================================================
(end of parts)

==================================================================
==================================================================
==================================================================
(end of song)

(If there is a “continued” it is because the numbers could not
fit on 1 line.)


Chorus

(x2)

Guitar 1
E-----------------------------------------------------------------|
B-----------------------------------------------------------------|
G-7---7---7---7---7---7---7---7---7---7---7---7---7---7---7---7---|
D-7---7---7---7---7---7---7---7---7---7---7---7---7---7---7---7---|
A-5---5---5---5---5---5---5---5---5---5---5---5---5---5---5---5---|
D-----------------------------------------------------------------|

Guitar 2
E-----------------------------------------------------------------|
B-----------------------------13------13------13------------------|
G-----10--14--10--14--10----------10------10------10--14--10--14--|
D-12----------------------12--------------------------------------|
A-----------------------------------------------------------------|
D-----------------------------------------------------------------|

==================================================================

Guitar 1
E-----------------------------------------------------------------|
B-----------------------------------------------------------------|
G-3---3---3---3---3---3---3---3---3---3---3---3---3---3---3---3---|
D-3---3---3---3---3---3---3---3---3---3---3---3---3---3---3---3---|
A-1---1---1---1---1---1---1---1---1---1---1---1---1---1---1---1---|
D-----------------------------------------------------------------|

Guitar 2
E-----------------------------------------------------------------|
B-----------------------------13------13------13------------------|
G-----10--14--10--14--10----------10------10------10--14--10--14--|
D-12----------------------12--------------------------------------|
A-----------------------------------------------------------------|
D-----------------------------------------------------------------|

==================================================================

Guitar 1
E-----------------------------------------------------------------|
B-----------------------------------------------------------------|
G-5---5---5---5---5---5---5---5---5---5---5---5---5---5---5---5---|
D-5---5---5---5---5---5---5---5---5---5---5---5---5---5---5---5---|
A-3---3---3---3---3---3---3---3---3---3---3---3---3---3---3---3---|
D-----------------------------------------------------------------|

Guitar 2
E-----------------------------------------------------------------|
B-----------------------------13------13------13------------------|
G-----10--14--10--14--10----------10------10------10--14--10--14--|
D-12----------------------12--------------------------------------|
A-----------------------------------------------------------------|
D-----------------------------------------------------------------|

==================================================================

Guitar 1
E-----------------------------------------------------------------|
B-----------------------------------------------------------------|
G-3---3---3---3---3---3---3---3---5---5---5---5---5---5---5---5---|
D-3---3---3---3---3---3---3---3---5---5---5---5---5---5---5---5---|
A-1---1---1---1---1---1---1---1---3---3---3---3---3---3---3---3---|
D-----------------------------------------------------------------|

Guitar 2
E-----------------------------------------------------------------|
B-----------------------------13------13------13------------------|
G-----10--14--10--14--10----------10------10------10--14--10--14--|
D-12----------------------12--------------------------------------|
A-----------------------------------------------------------------|
D-----------------------------------------------------------------|

==================================================================
==================================================================


Bridge 1

Guitar 1 & 2
E-----------------------------------------------------------------|
B-6---6---6---6~~~~~~~~~~~~~~~~~~~~~~~~~~~~~~~~~~~~~~~~~~~~~~~~~~-|
G-9---9---9---9~~~~~~~~~~~~~~b~~~~~~~~~~~~~~~~~~~~~~~~~~~~~~~~~~~-|
D-----------------------------------------------------------------|
A-----------------------------------------------------------------|
D-----------------------------------------------------------------|

==================================================================
==================================================================


Verse

(x2)

Guitar 1
E-----------------------------------------------------------------|
B-----------------------------------------------------------------|
G-----------------------------------------------------------------|
D-----------------------------------------------------------------|
A-5---5---5---5-----------5---5---5---5-----------5---5---5~~~~~~-|
D-----------------------------------------------------------------|

Guitar 2
E-----------------------------------------------------------------|
B-----------------------------------------------------------------|
G-----------------------------------------------------------------|
D-7---7---7---7-----------7---7---7---7-----------7---7---7~~~~~~-|
A-----------------------------------------------------------------|
D-----------------------------------------------------------------|

==================================================================

Guitar 1
E-----------------------------------------------------------------|
B-----------------------------------------------------------------|
G-----------------------------------------------------------------|
D-----------------------------------------------------------------|
A-10--10--10--10----------10--10--10--10----------10--10--10~~~~~-|
D-----------------------------------------------------------------|

Guitar 2
E-----------------------------------------------------------------|
B-----------------------------------------------------------------|
G-----------------------------------------------------------------|
D-----------------------------------------------------------------|
A-8---8---8---8-----------8---8---8---8-----------8---8---8~~~~~~-|
D-----------------------------------------------------------------|

==================================================================

Guitar 1
E-----------------------------------------------------------------|
B-----------------------------------------------------------------|
G-----------------------------------------------------------------|
D-----------------------------------------------------------------|
A-7---7---7---7-----------7---7---7---7-----------7---7---7-~~~~~-|
D-----------------------------------------------------------------|

Guitar 2
E-----------------------------------------------------------------|
B-----------------------------------------------------------------|
G-----------------------------------------------------------------|
D-----------------------------------------------------------------|
A-8---10--10--10----------10--10--10--10----------10--10--10~~~~~-|
D-----------------------------------------------------------------|

==================================================================

Guitar 1 & 2
E-----------------------------------------------------------------|
B---------6b------6b~~~~~---------6b------6b~~~~~-6b--6b--6b~~~~~-|
G---------9b------9b~~~~~---------9b------9b~~~~~-9b--9b--9b~~~~~-|
D-0---0-------0-----------0---0-------0---------------------------|
A-----------------------------------------------------------------|
D-----------------------------------------------------------------|
pm.   .       .           .   .       .

==================================================================
==================================================================


Bridge 2

Guitar 1 & 2
E-----------------------------------------------------------------|
B-----------------------------------------------------------------|
G-----------------------------------------------------------------|
D-0-0-0-0-0-------0~~~~~~~~~~~~~~~~~~~~~~~~~~~~~~~~~~~~~~~~~~~~~~-|
A-0-0-0-0-0-------0~~~~~~~~~~~~~~~~~~~~~~~~~~~~~~~~~~~~~~~~~~~~~~-|
D-0-0-0-0-0-------0~~~~~~~~~~~~~~~~~~~~~~~~~~~~~~~~~~~~~~~~~~~~~~-|
pm. . . . .

==================================================================

Guitar 1 & 2
E-----------------------------------------------------------------|
B-----------------------------------------------------------------|
G-----------------------------------------------------------------|
D-0-0-0-0-0-------0~~~~~~~~~~~~~~~~~~~~~~~~~~~~~~~~~~~~~~~~~~~~~~-|
A-0-0-0-0-0-------0~~~~~~~~~~~~~~~~~~~~~~~~~~~~~~~~~~~~~~~~~~~~~~-|
D-0-0-0-0-0-------0~~~~~~~~~~~~~~~~~~~~~~~~~~~~~~~~~~~~~~~~~~~~~~-|
pm. . . . .

==================================================================

Guitar 1 & 2
E-----------------------------------------------------------------|
B-----------------------------------------------------------------|
G-----------------------------------------------------------------|
D-0-0-0-0-0-------0~~~~~~~~~~~~~~~~~~~~~~~~~~~~~~~~~~~~~~~~~~~~~~-|
A-0-0-0-0-0-------0~~~~~~~~~~~~~~~~~~~~~~~~~~~~~~~~~~~~~~~~~~~~~~-|
D-0-0-0-0-0-------0~~~~~~~~~~~~~~~~~~~~~~~~~~~~~~~~~~~~~~~~~~~~~~-|
pm. . . . .

==================================================================

Guitar 1 & 2
E-----------------------------------------------------------------|
B-----------------------------------------------------------------|
G-----------------------------------------------------------------|
D-0-0-0-0-0-------0~~~~~~~~~~~~~~~~~~~~~~~~~~~~~~~~~~~~~~~~~~~~~~-|
A-0-0-0-0-0-------0~~~~~~~~~~~~~~~~~~~~~~~~~~~~~~~~~~~~~~~~~~~~~~-|
D-0-0-0-0-0-------0~~~~~~~~~~~~~~~~~~~~~~~~~~~~~~~~~~~~~~~~~~~~~~-|
pm. . . . .       .

==================================================================
==================================================================


Breakdown 1

Guitar 1
E-----------------------------------------------------------------|
B-----------------------------------------------------------------|
G-----------------------------------------------------------------|
D-0-0-0-0-0-------0-0-0-0-0---------------------------------------|
A-0-0-0-0-0-------0-0-0-0-0---------------------------------------|
D-0-0-0-0-0-------0-0-0-0-0---------------------------------------|
pm. . . . .       . . . . .


Guitar 2
E-----------------------------------------------------------------|
B-----------------------------------------------------------------|
G-----------------------------------------------------------------|
D-0-0-0-0-0-------0-0-0-0-0-----------------------x---x---x---3*--|
A-0-0-0-0-0-------0-0-0-0-0-----------------------x---x---x---3*--|
D-0-0-0-0-0-------0-0-0-0-0-----------------------x---x---x---3*--|
pm. . . . .       . . . . .

==================================================================

Guitar 1
E-----------------------------------------------------------------|
B-----------------------------------------------------------------|
G---------------------------------3---3---3---3---5---5---5---5---|
D---------0--0--0--0------x---x---x---x---x---x---x---x---x---x---|
A---------0--0--0--0------x---x---1---1---1---1---3---3---3---3---|
D---------0--0--0--0------x---x-----------------------------------|
Pm        .  .  .  .

Guitar 2
E-----------------------------------------------------------------|
B-----------------------------------------------------------------|
G---------------------------------3---3---3---3---5---5---5---5---|
D-x-x-x-x-0--0--0--0--------------x---x---x---x---x---x---x---x---|
A-x-x-x-x-0--0--0--0--------------1---1---1---1---3---3---3---3---|
D-x-x-x-x-0--0--0--0----------------------------------------------|
Pm        .  .  .  .

==================================================================

Guitar 1
E-----------------------------------------------------------------|
B-----------------------------------------------------------------|
G-----------------------------------------------------------------|
D-0-0-0-0-0-------0-0-0-0-0---------------------------------------|
A-0-0-0-0-0-------0-0-0-0-0---------------------------------------|
D-0-0-0-0-0-------0-0-0-0-0---------------------------------------|
pm. . . . .       . . . . .


Guitar 2
E-----------------------------------------------------------------|
B-----------------------------------------------------------------|
G-----------------------------------------------------------------|
D-0-0-0-0-0-------0-0-0-0-0-----------------------x---x---x---x---|
A-0-0-0-0-0-------0-0-0-0-0-----------------------x---x---x---x---|
D-0-0-0-0-0-------0-0-0-0-0-----------------------x---x---x---x---|
pm. . . . .       . . . . .

==================================================================

Guitar 1
E-----------------------------------------------------------------|
B-----------------------------------------------------------------|
G---------------------------------3---3---3---3---5---5---5---5---|
D---------0--0--0--0------x-x-x-x-x---x---x---x---x---x---x---x---|
A---------0--0--0--0------x-x-x-x-1---1---1---1---3---3---3---3---|
D---------0--0--0--0------x-x-x-x---------------------------------|
Pm        .  .  .  .

Guitar 2
E-----------------------------------------------------------------|
B-----------------------------------------------------------------|
G---------------------------------3---3---3---3---5---5---5---5---|
D-x---x---0--0--0--0--------------x---x---x---x---x---x---x---x---|
A-x---x---0--0--0--0--------------1---1---1---1---3---3---3---3---|
D-x---x---0--0--0--0----------------------------------------------|
Pm        .  .  .  .

==================================================================

Guitar 1
E------------------------------------------------------------------|
B------------------------------------------------------------------|
G------------------------------------------------------------------|
D-0-0-0-0-0-------0-0-0-0-0-----------------------0~~~~~~~~~~~~~~~-|
A-0-0-0-0-0-------0-0-0-0-0-----------------------0~~~~~~~~~~~~~~~-|
D-0-0-0-0-0-------0-0-0-0-0-----------------------0~~~~~~~~~~~~~~~-|
pm. . . . .       . . . . .


Guitar 2
E-----------------------------------------------------------------|
B-----------------------------------------------------------------|
G-----------------------------------------------------------------|
D-0-0-0-0-0-------0-0-0-0-0-----------------------x--x--x--x--x---|
A-0-0-0-0-0-------0-0-0-0-0-----------------------x--x--x--x--x---|
D-0-0-0-0-0-------0-0-0-0-0-----------------------x--x--x--x--x---|
pm. . . . .       . . . . .

==================================================================

Guitar 1
E-----------------------------------------------------------------|
B-----------------------------------------------------------------|
G---------------------------------3---3---3---3---5---5---5---5---|
D-~~~~~~~-0--0--0--0--------------x---x---x---x---x---x---x---x---|
A-~~~~~~~-0--0--0--0--------------1---1---1---1---3---3---3---3---|
D-~~~~~~~-0--0--0--0----------------------------------------------|
Pm        .  .  .  .

Guitar 2
E-----------------------------------------------------------------|
B-----------------------------------------------------------------|
G---------------------------------3---3---3---3---5---5---5---5---|
D-x--x--x-0--0--0--0--------------x---x---x---x---x---x---x---x---|
A-x--x--x-0--0--0--0--------------1---1---1---1---3---3---3---3---|
D-x--x--x-0--0--0--0----------------------------------------------|
Pm        .  .  .  .

==================================================================

Guitar 1 & 2
E-----------------------------------------------------------------|
B-----------------------------------------------------------------|
G-----------------------------------------------------------------|
D-0-0-0-0-0-------0-0-0-0-0------/12\~~~~~~~~~~~~~~~~~~~~~~~~~~~~-|
A-0-0-0-0-0-------0-0-0-0-0------/12\~~~~~~~~~~~~~~~~~~~~~~~~~~~~-|
D-0-0-0-0-0-------0-0-0-0-0------/12\~~~~~~~~~~~~~~~~~~~~~~~~~~~~-|
pm. . . . .       . . . . .

==================================================================

Guitar 1 & 2
E-----------------------------------------------------------------|
B-----------------------------------------------------------------|
G---------------------------------3---3---3---3---5---5---5---5---|
D---------0--0--0--0--------------x---x---x---x---x---x---x---x---|
A---------0--0--0--0--------------1---1---1---1---3---3---3---3---|
D---------0--0--0--0----------------------------------------------|
Pm        .  .  .  .

==================================================================
==================================================================


Chorus

(x2)

Guitar 1
E-----------------------------------------------------------------|
B-----------------------------------------------------------------|
G-7---7---7---7---7---7---7---7---7---7---7---7---7---7---7---7---|
D-7---7---7---7---7---7---7---7---7---7---7---7---7---7---7---7---|
A-5---5---5---5---5---5---5---5---5---5---5---5---5---5---5---5---|
D-----------------------------------------------------------------|

Guitar 2
E-----------------------------------------------------------------|
B-----------------------------13------13------13------------------|
G-----10--14--10--14--10----------10------10------10--14--10--14--|
D-12----------------------12--------------------------------------|
A-----------------------------------------------------------------|
D-----------------------------------------------------------------|

==================================================================

Guitar 1
E-----------------------------------------------------------------|
B-----------------------------------------------------------------|
G-3---3---3---3---3---3---3---3---3---3---3---3---3---3---3---3---|
D-3---3---3---3---3---3---3---3---3---3---3---3---3---3---3---3---|
A-1---1---1---1---1---1---1---1---1---1---1---1---1---1---1---1---|
D-----------------------------------------------------------------|

Guitar 2
E-----------------------------------------------------------------|
B-----------------------------13------13------13------------------|
G-----10--14--10--14--10----------10------10------10--14--10--14--|
D-12----------------------12--------------------------------------|
A-----------------------------------------------------------------|
D-----------------------------------------------------------------|

==================================================================

Guitar 1
E-----------------------------------------------------------------|
B-----------------------------------------------------------------|
G-5---5---5---5---5---5---5---5---5---5---5---5---5---5---5---5---|
D-5---5---5---5---5---5---5---5---5---5---5---5---5---5---5---5---|
A-3---3---3---3---3---3---3---3---3---3---3---3---3---3---3---3---|
D-----------------------------------------------------------------|

Guitar 2
E-----------------------------------------------------------------|
B-----------------------------13------13------13------------------|
G-----10--14--10--14--10----------10------10------10--14--10--14--|
D-12----------------------12--------------------------------------|
A-----------------------------------------------------------------|
D-----------------------------------------------------------------|

==================================================================

Guitar 1
E-----------------------------------------------------------------|
B-----------------------------------------------------------------|
G-3---3---3---3---3---3---3---3---5---5---5---5---5---5---5---5---|
D-3---3---3---3---3---3---3---3---5---5---5---5---5---5---5---5---|
A-1---1---1---1---1---1---1---1---3---3---3---3---3---3---3---3---|
D-----------------------------------------------------------------|

Guitar 2
E-----------------------------------------------------------------|
B-----------------------------13------13------13------------------|
G-----10--14--10--14--10----------10------10------10--14--10--14--|
D-12----------------------12--------------------------------------|
A-----------------------------------------------------------------|
D-----------------------------------------------------------------|

==================================================================
==================================================================


Bridge 3

Guitar 1 & 2
E-----------------------------------------------------------------|
B-6---6---6---6~~~~~~~~~~~~~~~~~~~~~~~~~~~~~~~~~~~~~~~~~~~~~~~~~~-|
G-9---9---9---9~~~~~~~~~~~~~~b~~~~~~~~~~~~~~~~~~~~~~~~~~~~~~~~~~~-|
D-----------------------------------------------------------------|
A-8---8---8---8~~~~~~~~~~~~~~~~~~~~~~~~~~~~~~~~~~~~~~~~~~~~~~~~~~-|
D-----------------------------------------------------------------|

==================================================================
==================================================================


Interlude 1

Guitar 1
E-----------------------------------------------------------------|
B-----------------------------------------------------------------|
G-----------------------------------------------------------------|
D-----------------------------------------------------------------|
A-----------------------------------------------------------------|
D-0---0-------0-------0-------0---0---0-------0-------0-------0---|

Guitar 2
E-----------------------------------------------------------------|
B-----------------------------------------------------------------|
G-----------------------------------------------------------------|
D-----------------------------------------------------------------|
A-----------------------------------------------------------------|
D-0---0---14--0---15--0---14--0---12--0---14--0---12--0---10--0---|

==================================================================

Guitar 1
E-----------------------------------------------------------------|
B-----------------------------------------------------------------|
G-----------------------------------------------------------------|
D-----------------------------------------------------------------|
A-----------------------------------------------------------------|
D-0---0-------0-------0-------0---0---0-------0-------0-------0---|

Guitar 2
E-----------------------------------------------------------------|
B-----------------------------------------------------------------|
G-----------------------------------------------------------------|
D-----------------------------------------------------------------|
A-----------------------------------------------------------------|
D-0---0---14--0---15--0---14--0---8---0---7---0---5---0---7---0---|

==================================================================

Guitar 1
E-----------------------------------------------------------------|
B-----------------------------------------------------------------|
G-----------------------------------------------------------------|
D-----------------------------------------------------------------|
A-----------------------------------------------------------------|
D-0---0-------0-------0-------0---0---0-------0-------0-------0---|

Guitar 2
E-----------------------------------------------------------------|
B-----------------------------------------------------------------|
G-----------------------------------------------------------------|
D-----------------------------------------------------------------|
A-----------------------------------------------------------------|
D-0---0---14--0---15--0---14--0---12--0---14--0---12--0---10--0---|

==================================================================

Guitar 1 & 2
E-----------------------------------------------------------------|
B-----------------------------------------------------------------|
G-----------------------------------------------------------------|
D-------------------------------------------------1~~~~~~~~~~~~~~-|
A-------------------------------------------------1~~~~~~~~~~~~~~-|
D-12--0---10--0---8---0---7---0---5---0---3---0---0~~~~~~~~~~~~~~-|
Pm                                                .

==================================================================
==================================================================


Bridge 4 (Tempo changes)

Guitar 1
E-----------------------------------------------------------------|
B-----------------------------------------------------------------|
G-----------------------------------------------------------------|
D-----------------------------------------------------------------|
A-----------------------------------------------------------------|
D-12--12----------------------------------------------------------|

Guitar 2
E-----------------------------------------------------------------|
B-----------------------------------------------------------------|
G-----------------------------------------------------------------|
D-----------------------------------------------------------------|
A-----------------------------------------------------------------|
D-12--12------0-------0-------0-------0-------0-------0-------0---|

==================================================================

Guitar 1
E-----------------------------------------------------------------|
B-----------------------------------------------------------------|
G-----------------------------------------------------------------|
D-----------------------------------------------------------------|
A-----------------------------------------------------------------|
D-10--10--------------------------8---8---------------------------|

Guitar 2
E-----------------------------------------------------------------|
B-----------------------------------------------------------------|
G-----------------------------------------------------------------|
D-----------------------------------------------------------------|
A-----------------------------------------------------------------|
D-10--10------0-------0-------0---8---8-------0-------0-------0---|

==================================================================

Guitar 1
E-----------------------------------------------------------------|
B-----------------------------------------------------------------|
G-----------------------------------------------------------------|
D-----------------------------------------------------------------|
A-----------------------------------------------------------------|
D-12--12----------------------------------------------------------|

Guitar 2
E-----------------------------------------------------------------|
B-----------------------------------------------------------------|
G-----------------------------------------------------------------|
D-----------------------------------------------------------------|
A-----------------------------------------------------------------|
D-12--12------0-------0-------0-------0-------0-------0-------0---|

==================================================================

Guitar 1
E-----------------------------------------------------------------|
B-----------------------------------------------------------------|
G-----------------------------------------------------------------|
D-----------------------------------------------------------------|
A-----------------------------------------------------------------|
D-10--10--------------------------8---8-------0-------0-----------|

Guitar 2
E-----------------------------------------------------------------|
B-----------------------------------------------------------------|
G-----------------------------------------------------------------|
D-----------------------------------------------------------------|
A-----------------------------------------------------------------|
D-10--10------0-------0-------0---8---8-------0-------0-----------|

==================================================================
==================================================================


Breakdown 2

(x4)


Guitar 1 & 2
E-----------------------------------------------------------------|
B-----------------------------------------------------------------|
G-----------------------------------------------------------------|
D-----------------------------------------------------------------|
A-----------------------------------------------------------------|
D-12--12------0-------0-------0-------0-------0-------0-------0---|

==================================================================

Guitar 1 & 2
E-----------------------------------------------------------------|
B-----------------------------------------------------------------|
G-----------------------------------------------------------------|
D-----------------------------------------------------------------|
A-----------------------------------------------------------------|
D-10--10------0-------0-------0---8---8-------0-------0-------0---|

==================================================================
==================================================================


Interlude 2

(x2)

Guitar 1
E-----------------------------------------------------------------|
B-----------------------------------------------------------------|
G-7---7---7---7---7---7---7---7---7---7---7---7---7---7---7---7---|
D-7---7---7---7---7---7---7---7---7---7---7---7---7---7---7---7---|
A-5---5---5---5---5---5---5---5---5---5---5---5---5---5---5---5---|
D-----------------------------------------------------------------|

Guitar 2
E-----------------------------------------------------------------|
B-----------------------------------------------------------------|
G-10--10--10--10--10--10--10--10--10--10--10--10--10--10--10--10--|
D-x---x---x---x---x---x---x---x---x---x---x---x---x---x---x---x---|
A-8---8---8---8---8---8---8---8---8---8---8---8---8---8---8---8---|
D-----------------------------------------------------------------|

==================================================================

Guitar 1
E-----------------------------------------------------------------|
B-----------------------------------------------------------------|
G-5---5---5---5---5---5---5---5---3---3---3---3---3---3---3---3---|
D-5---5---5---5---5---5---5---5---3---3---3---3---3---3---3---3---|
A-3---3---3---3---3---3---3---3---1---1---1---1---1---1---1---1---|
D-----------------------------------------------------------------|

Guitar 2
E-----------------------------------------------------------------|
B-----------------------------------------------------------------|
G-9---9---9---9---9---9---9---9---7---7---7---7---7---7---7---7---|
D-x---x---x---x---x---x---x---x---x---x---x---x---x---x---x---x---|
A-7---7---7---7---7---7---7---7---5---5---5---5---5---5---5---5---|
D-----------------------------------------------------------------|

==================================================================

Guitar 1
E-----------------------------------------------------------------|
B-----------------------------------------------------------------|
G-7---7---7---7---7---7---7---7---7---7---7---7---7---7---7---7---|
D-7---7---7---7---7---7---7---7---7---7---7---7---7---7---7---7---|
A-5---5---5---5---5---5---5---5---5---5---5---5---5---5---5---5---|
D-----------------------------------------------------------------|

Guitar 2
E-----------------------------------------------------------------|
B-----------------------------------------------------------------|
G-7---7---7---7---7---7---7---7---7---7---7---7---7---7---7---7---|
D-x---x---x---x---x---x---x---x---x---x---x---x---x---x---x---x---|
A-5---5---5---5---5---5---5---5---5---5---5---5---5---5---5---5---|
D-----------------------------------------------------------------|

==================================================================

Guitar 1
E-----------------------------------------------------------------|
B-----------------------------------------------------------------|
G-5---5---5---5---5---5---5---5---3---3---3---3---3---3---3---3---|
D-5---5---5---5---5---5---5---5---3---3---3---3---3---3---3---3---|
A-3---3---3---3---3---3---3---3---1---1---1---1---1---1---1---1---|
D-----------------------------------------------------------------|

Guitar 2
E-----------------------------------------------------------------|
B-----------------------------------------------------------------|
G-9---9---9---9---9---9---9---9---10--10--10--10--10--10--10--10--|
D-x---x---x---x---x---x---x---x---x---x---x---x---x---x---x---x---|
A-7---7---7---7---7---7---7---7---8---8---8---8---8---8---8---8---|
D-----------------------------------------------------------------|

==================================================================
==================================================================


Outro

Guitar 1
E-----------------------------------------------------------------|
B-----------------------------------------------------------------|
G-----------------------------------------------------------------|
D-----------------------------------------------------------------|
A-----------------------------------------------------------------|
D-12--12------0-------0-------0-------0-------0-------0-------0---|

Guitar 2
E-----------------------------------------------------------------|
B-----------------------------------------------------------------|
G-10~~~~~~~~~~~~~~~~~~~~~~~~~~~~~~~~~~~~~~~~~~~~~~~~~~~~~~~~~~~~~-
D-x---------------------------------------------------------------
A-8~~~~~~~~~~~~~~~~~~~~~~~~~~~~~~~~~~~~~~~~~~~~~~~~~~~~~~~~~~~~~~-
D-----------------------------------------------------------------

==================================================================

Guitar 1
E-----------------------------------------------------------------|
B-----------------------------------------------------------------|
G-----------------------------------------------------------------|
D-----------------------------------------------------------------|
A-----------------------------------------------------------------|
D-10--10------0-------0-------0---8---8-------0-------0-------0---|

==================================================================

Guitar 1
E-----------------------------------------------------------------|
B-----------------------------------------------------------------|
G-----------------------------------------------------------------|
D-----------------------------------------------------------------|
A-----------------------------------------------------------------|
D-12--12------0-------0-------0-------0-------0-------0-------0---|

==================================================================

Guitar 1
E-----------------------------------------------------------------|
B-----------------------------------------------------------------|
G-----------------------------------------------------------------|
D-----------------------------------------------------------------|
A-----------------------------------------------------------------|
D-10--10------0-------0-------0---8---8-------0-------0-------0---|

==================================================================

Guitar 1 (x4)
E-----------------------------------------------------------------|
B-----------------------------------------------------------------|
G-----------------------------------------------------------------|
D-----------------------------------------------------------------|
A-----------------------------------------------------------------|
D-12--12------0-------0-------0-------0-------0-------0-------0---|

Guitar 2 (x4) echo effect
E-13~~~~~~~~~~~~~-13~~~~~~~~~~~~~-13~~~~~~~~~~~~~-13~~~~~~~~~~~~~-|
B---------17~~~~~~~~~~~~~-17~~~~~~~~~~~~~-17~~~~~~~~~~~~~-17~~~~~-|
G-----------------------------------------------------------------|
D-----------------------------------------------------------------|
A-----------------------------------------------------------------|
D-----------------------------------------------------------------|

==================================================================

Guitar 1 continued
E-----------------------------------------------------------------|
B-----------------------------------------------------------------|
G-----------------------------------------------------------------|
D-----------------------------------------------------------------|
A-----------------------------------------------------------------|
D-10--10------0-------0-------0---8---8-------0-------0-------0---|

Guitar 2 continued
E-12~~~~~~~~~~~~~-12~~~~~~~~~~~~~-12~~~~~~~~~~~~~-12~~~~~~~~~~~~~-|
B---------15~~~~~~~~~~~~~-15~~~~~~~~~~~~~-15~~~~~~~~~~~~~-15~~~~~-|
G-----------------------------------------------------------------|
D-----------------------------------------------------------------|
A-----------------------------------------------------------------|
D-----------------------------------------------------------------|

==================================================================

Guitar 2
E-13~~~~~~~~~~~~~~------------------------------------------------|
B---------17~~~~~~------------------------------------------------|
G-----------------------------------------------------------------|
D-----------------------------------------------------------------|
A-----------------------------------------------------------------|
D-----------------------------------------------------------------|

==================================================================
==================================================================
==================================================================


Tab Legend
h  -  hammer-on
p  -  pull-off
/  -  slide up
\  -  slide down
ps/-  pickslide up
ps\-  pickslide down
~  -  let ring
pm.-  palm mute
b  -  bend
r  -  return from bend
*  -  harmonic
x  -  dead note
^  -  Whammy bar
^\ -  Whammy bar (hold down)

That’s all! I hope this tabs has helped you and if you’ve got any problems be sure to 
check out my cover for some visuals. Thanks, oh and one last thing... ROCK OUT!!!!





Comments


Popular I See Stars tabs & chords
Ibelieve Chords
Your Love Chords
Digital Renegade Tabs
Gnars Attacks Tabs
Over It Tabs
Save The Cheerleader Tabs
The Big Bad Wolf Tabs
The Big Bad Wolf Intro Tabs
The Common Hours Ii Tabs
Your Love Tabs


Song lyrics



↑ Back to top | Tablatures and chords are parodies/interpretations of the original songs. You may use it for private study, scholarship, research or language learning purposes only
© 2014 AZChords.com Contact us | Privacy policy | DMCA | Add/correct tabs | Request tabs | Top 50 tabs