» » »

Wasted Years Tabs (ver.3)

Artists:  A B C D E F G H I J K L M N O P Q R S T U V W X Y Z # 

Wasted Years Tabs (ver.3)

Iron Maiden
Rating:
0/5 (0 votes)

Hard to play? Try these video lessons and learn fast.
                
I have searched for 1/2 a year for a tab for the solo of wasted years.I have given up
so i had a shot at making my own tab.I couldn't tab the part when the singing comes back
in. This is my first tab of a solo so there are probably lots of mistakes.
If you have any comments,questions or corrections mail them to me.
If you find a tab of wasted years solo please mail me and give me the 
address so i can check it out.If you know the singing part also mail me.

h-hammer on
p-pull off
^-bend
r-release bend
~-vibrato
#-let ring
x-muted note

    20x__Fast                                                     23x_Fast
e|--|11-10-8|-11-10-8---8-10-8~~-- ___4x____-----15^r (5x)-12----|15-14-12|--15#
B|-------------------11-----------|12-h15^rp|-12--------------13---------------
G|-----------------------------------------------------------------------------
D|-----------------------------------------------------------------------------
A|-----------------------------------------------------------------------------
E|-----------------------------------------------------------------------------

     __________Very Fast__________________    ___________Slow___________________
e|--|15-14-12-----------------------------|--|----------------12-13-15-17-19-20^|
B|-----------15-14-12--------------------------------12-13-15-------------------
G|--------------------14-13-12---------------12-13-14---------------------------
D|-----------------------------14-12--------------------------------------------
A|-----------------------------------14-12--------------------------------------
E|------------------------------------------------------------------------------

(SINGING BIT)
(DONT KNOW YET)

If someone can tab the last bit then i will post a new version with everyones corrections
added on!
            
Hard to play? Try these video lessons and learn fast. | Correct




comments powered by Disqus
↑ Back to top | Tablatures and chords are parodies/interpretations of the original songs. You may use it for private study, scholarship, research or language learning purposes only