>
 >
Virus

Virus Guitar Tabs

Iron Maiden - Virus chords, tabs, tablatures, lyrics

Guitar lessons | Add/correct | Request | Top 50 tabs Artists:  A B C D E F G H I J K L M N O P Q R S T U V W X Y Z 0-9

Virus Guitar Tabs – Iron Maiden

CD, Sheet music, Poster

Do you like Virus? Share with your friends now
TabsTabs v2
Virus (Iron Maiden)

Written by Steve Harris, Dave Murray and Janick Gers

Lyrics by Blaze Bailey



*

Intro: (No Rhythm)

*

E|-0-----023-2-0----|-0-----023-2-0----|-0-----023-2-0----|-0------30--------|
B|------0-------3---|------0-------3---|------0-------3---|----------------0-|
G|------------------|------------------|------------------|------------------|
D|------------------|------------------|------------------|------------------|
A|------------------|------------------|------------------|------------------|
E|------------------|------------------|------------------|------------------|

G|------------------|------------------|------------------|------------------|
D|------------------|------------------|------------------|-55555555---------|
A|-7777777777777777-|-3333333333333333-|-5555555555555555-|---------55555555-|
E|------------------|------------------|------------------|------------------|

*

E|-0-----023-2-0----|-0-----023-2-0----|-0-----023-2-35---|-7------55--------|
B|------0-------3---|------0-------3---|------0-----------|------------------|
G|------------------|------------------|------------------|------------------|
D|------------------|------------------|------------------|------------------|
A|------------------|------------------|------------------|------------------|
E|------------------|------------------|------------------|------------------|

G|------------------|------------------|------------------|------------------|
D|------------------|------------------|------------------|-55555555---------|
A|-7777777777777777-|-3333333333333333-|-5555555555555555-|---------55555555-|
E|------------------|------------------|------------------|------------------|

*

Verse: (Lead + Rhythm)

*

E|------------------|------------------|------------------|------------------|
B|------------------|------------------|------------------|------------------|
G|------------------|------------------|------------------|-7-----------9----|
D|-9-----------9--9-|-5-----------5--5-|-7-----------7--7-|-5-------7---7----|
A|-7-77777777777--7-|-3-33333333333--3-|-5-55555555555--5-|---------5--------|
E|------------------|------------------|------------------|------------------|

G|------------------|------------------|------------------|------------------|
D|------------------|------------------|------------------|-55555555---------|
A|-7777777777777777-|-3333333333333333-|-5555555555555555-|---------5555-----|
E|------------------|------------------|------------------|-------------5555-|

*

E|------------------|------------------|------------------|------------------|
B|------------------|------------------|------------------|------------------|
G|------------------|------------------|------------------|-7-----------9----|
D|-9-----------9--9-|-5-----------5--5-|-7-----------7--7-|-5-------7---7----|
A|-7-77777777777--7-|-3-33333333333--3-|-5-55555555555--5-|---------5--------|
E|------------------|------------------|------------------|------------------|

G|------------------|------------------|------------------|------------------|
D|------------------|------------------|------------------|-55555555---------|
A|-7777777777777777-|-3333333333333333-|-5555555555555555-|---------5555-----|
E|------------------|------------------|------------------|-------------5555-|

*

 Chorus: (Lead + Rhythm separate)

*

E|------------------|------------------|------------------|------------------|
B|------------------|------------------|------------------|------------------|
G|------------------|------------------|------------------|------------------|
D|-9----------------|-5----------------|-9----------------|-5-------7--------|
A|-7----------------|-3----------------|-7----------------|-3-------5--------|
E|------------------|------------------|------------------|------------------|

E|------------------|------------------|------------------|------------------|
B|------------------|------------------|------------------|------------------|
G|---------7--6-----|---------7--6-----|---------7--6-----|------------------|
D|-9-------5--4--7--|-5-------5--3--7--|-9-------5--4--7--|-5-------7--------|
A|-7-------------5--|-3-------------5--|-7-------------5--|-3-------5--------|
E|------------------|------------------|------------------|------------------|

G|------------------|------------------|------------------|------------------|
D|---------555444---|---------555444---|---------555444---|-----------775544-|
A|-77777777------55-|-33333333------55-|-77777777------55-|-3333333355-------|
E|------------------|------------------|------------------|------------------|

*

E|------------------|------------------|------------------|------------------|
B|------------------|------------------|------------------|------------------|
G|------------------|------------------|------------------|------------------|
D|-9----------------|-5----------------|-9----------------|-5-------7--------|
A|-7----------------|-3----------------|-7----------------|-3-------5--------|
E|------------------|------------------|------------------|------------------|

E|------------------|------------------|------------------|------------------|
B|------------------|------------------|------------------|------------------|
G|---------7--6-----|---------7--6-----|---------7--6-----|------------------|
D|-9-------5--4--7--|-5-------5--3--7--|-9-------5--4--7--|-5-------7--------|
A|-7-------------5--|-3-------------5--|-7-------------5--|-3-------5--------|
E|------------------|------------------|------------------|------------------|

G|------------------|------------------|------------------|------------------|
D|---------555444---|---------555444---|---------555444---|-----------775544-|
A|-77777777------55-|-33333333------55-|-77777777------55-|-3333333355-------|
E|------------------|------------------|------------------|------------------|

*

Before Solo: (No Lead - Offbeat rhythm, listen for timing)

*

E|------------------|------------------|------------------|------------------|
B|------------------|------------------|------------------|------------------|
G|------------------|------------------|------------------|------------------|
D|-7--7--7---77-7---|-5--5--5---55-5---|-9--9--9---99-9---|-7--7--7---77-7---|
A|-5--5--5---55-5---|-3--3--3---33-3---|-7--7--7---77-7---|-5--5--5---55-5---|
E|------------------|------------------|------------------|------------------|

G|------------------|------------------|------------------|------------------|
D|------------------|------------------|------------------|------------------|
A|-5--5--5---55-5---|-3--3--3---33-3---|-7--7--7---77-7---|-5--5--5---55-5---|
E|------------------|------------------|------------------|------------------|

*

E|------------------|------------------|------------------|------------------|
B|------------------|------------------|------------------|------------------|
G|------------------|------------------|------------------|------------------|
D|-7--7--7---77-7---|-5--5--5---55-5---|-9--9--9---99-9---|-7--7--7---77-7---|
A|-5--5--5---55-5---|-3--3--3---33-3---|-7--7--7---77-7---|-5--5--5---55-5---|
E|------------------|------------------|------------------|------------------|

G|------------------|------------------|------------------|------------------|
D|------------------|------------------|------------------|------------------|
A|-5--5--5---55-5---|-3--3--3---33-3---|-7--7--7---77-7---|-5--5--5---55-5---|
E|------------------|------------------|------------------|------------------|

*

Solo: (Lead + Rhythm separate - Played twice)

*

E|-5--3--2----------|-3--2--0----------|-7--5--3----------|-5--3--2----------|
B|------------------|------------------|------------------|------------------|
G|------------------|------------------|------------------|------------------|
D|------------------|------------------|------------------|------------------|
A|------------------|------------------|------------------|------------------|
E|------------------|------------------|------------------|------------------|

E|------------------|------------------|------------------|------------------|
B|------------------|------------------|------------------|------------------|
G|------------------|------------------|------------------|------------------|
D|-7--7--7---77-7---|-5--5--5---55-5---|-9--9--9---99-9---|-7--7--7---77-7---|
A|-5--5--5---55-5---|-3--3--3---33-3---|-7--7--7---77-7---|-5--5--5---55-5---|
E|------------------|------------------|------------------|------------------|

G|------------------|------------------|------------------|------------------|
D|------------------|------------------|------------------|------------------|
A|-5--5--5---55-5---|-3--3--3---33-3---|-7--7--7---77-7---|-5--5--5---55-5---|
E|------------------|------------------|------------------|------------------|

*

E|-5--3--2----------|-3--2--0----------|-7--5--3----------|-5--3--2----------|
B|------------------|------------------|------------------|------------------|
G|------------------|------------------|------------------|------------------|
D|------------------|------------------|------------------|------------------|
A|------------------|------------------|------------------|------------------|
E|------------------|------------------|------------------|------------------|

E|------------------|------------------|------------------|------------------|
B|------------------|------------------|------------------|------------------|
G|------------------|------------------|------------------|------------------|
D|-7--7--7---77-7---|-5--5--5---55-5---|-9--9--9---99-9---|-7--7--7---77-7---|
A|-5--5--5---55-5---|-3--3--3---33-3---|-7--7--7---77-7---|-5--5--5---55-5---|
E|------------------|------------------|------------------|------------------|

G|------------------|------------------|------------------|------------------|
D|------------------|------------------|------------------|------------------|
A|-5--5--5---55-5---|-3--3--3---33-3---|-7--7--7---77-7---|-5--5--5---55-5---|
E|------------------|------------------|------------------|------------------|

*

E|-5553--2----3-5-2-|-3--2--0----------|-7775--3----5-7-3-|-5--3--2----------|
B|------------------|------------------|------------------|------------------|
G|------------------|------------------|------------------|------------------|
D|------------------|------------------|------------------|------------------|
A|------------------|------------------|------------------|------------------|
E|------------------|------------------|------------------|------------------|

E|------------------|------------------|------------------|------------------|
B|------------------|------------------|------------------|------------------|
G|------------------|------------------|------------------|------------------|
D|-7--7--7---77-7---|-5--5--5---55-5---|-9--9--9---99-9---|-7--7--7---77-7---|
A|-5--5--5---55-5---|-3--3--3---33-3---|-7--7--7---77-7---|-5--5--5---55-5---|
E|------------------|------------------|------------------|------------------|

G|------------------|------------------|------------------|------------------|
D|------------------|------------------|------------------|------------------|
A|-5--5--5---55-5---|-3--3--3---33-3---|-7--7--7---77-7---|-5--5--5---55-5---|
E|------------------|------------------|------------------|------------------|

*
 E|-5553--2----3-5-2-|-3--2--0----------|-7775--3----5-7-3-|-5--3--2----------|
B|------------------|------------------|------------------|------------------|
G|------------------|------------------|------------------|------------------|
D|------------------|------------------|------------------|------------------|
A|------------------|------------------|------------------|------------------|
E|------------------|------------------|------------------|------------------|

E|------------------|------------------|------------------|------------------|
B|------------------|------------------|------------------|------------------|
G|------------------|------------------|------------------|------------------|
D|-7--7--7---77-7---|-5--5--5---55-5---|-9--9--9---99-9---|-7--7--7---77-7---|
A|-5--5--5---55-5---|-3--3--3---33-3---|-7--7--7---77-7---|-5--5--5---55-5---|
E|------------------|------------------|------------------|------------------|

G|------------------|------------------|------------------|------------------|
D|------------------|------------------|------------------|------------------|
A|-5--5--5---55-5---|-3--3--3---33-3---|-7--7--7---77-7---|-5--5--5---55-5---|
E|------------------|------------------|------------------|------------------|

*

Coda: (Lead + Rhythm)

*

E|------------------|------------------|------------------|------------------|
B|------------------|------------------|------------------|------------------|
G|------------------|------------------|------------------|------------------|
D|-7--7--7---77-7---|-5--5--5---55-5---|-9--9--9---99-9---|-7--7--7---77-7---|
A|-5--5--5---55-5---|-3--3--3---33-3---|-7--7--7---77-7---|-5--5--5---55-5---|
E|------------------|------------------|------------------|------------------|

G|------------------|------------------|------------------|------------------|
D|------------------|------------------|------------------|------------------|
A|-5--5--5---55-5---|-3--3--3---33-3---|-7--7--7---77-7---|-5--5--5---55-5---|
E|------------------|------------------|------------------|------------------|

*

E|------------------|------------------|------------------|------------------|
B|------------------|------------------|------------------|------------------|
G|------------------|------------------|------------------|------------------|
D|-7--7--7---77-7---|-5--5--5---55-5---|-9--9--9---99-9---|-7--7--7---77-7---|
A|-5--5--5---55-5---|-3--3--3---33-3---|-7--7--7---77-7---|-5--5--5---55-5---|
E|------------------|------------------|------------------|------------------|

G|------------------|------------------|------------------|------------------|
D|------------------|------------------|------------------|------------------|
A|-5--5--5---55-5---|-3--3--3---33-3---|-7--7--7---77-7---|-5--5--5---55-5---|
E|------------------|------------------|------------------|------------------|





Comments


Popular Iron Maiden tabs & chords
Blood On The Worlds Hands Bass Tabs
The Loneliness Of The Long Distance Runn 1 Bass Tabs
Another Life Tabs
Charlot The Harlot Tabs
Dance Of Death 5 Tabs
Flash Of The Blade 1 Tabs
Flight Of Icarus 1 Tabs
Genghis Kahn 1 Tabs
Lord Of The Flies Live Tabs
Rime Of The Ancient Mariner Tabs


Song lyrics



↑ Back to top | Tablatures and chords are parodies/interpretations of the original songs. You may use it for private study, scholarship, research or language learning purposes only
© 2014 AZChords.com Contact us | Privacy policy | DMCA | Add/correct tabs | Request tabs | Top 50 tabs