>
 >
Prowler 2

Prowler 2 Guitar Tabs

Iron Maiden - Prowler 2 chords, tabs, tablatures, lyrics

Guitar lessons | Add/correct | Request | Top 50 tabs Artists:  A B C D E F G H I J K L M N O P Q R S T U V W X Y Z 0-9

Prowler 2 Guitar Tabs – Iron Maiden

CD, Sheet music, Poster

Do you like Prowler 2? Share with your friends now
TabsTabs v2Tabs v3
__   __          __     ___     __
    |  | |  |/\      /  \    \   \  |  |
    |  | |     \    / /\ \    |   \ |  |
    |  | |  /\ /   / /  \ \   |    \|  |
    |  | |     \  / /    \ \  |  |\    |
    |  | |      \ \ ------ /  |  | \   |
    |__| |__|\   \ \______/   |__|  |  |
              \  /                  \  |
    ____       \/      __   __   __  \ |   ______  ___     __
    \   \  / \        /  | |  | |   \ \|  |      | \   \  |  |
     |   \/   \  /\  /   | |  | |    \    |   ___|  |   \ |  |
     |        | /  \/    | |  | | |\  \   |  |___   |    \|  |
     |  \  /  | \    /|  | |  | | | \  \  |      |  |  |\    |
     |  |\/|  | /   / |  | |  | | |  \  \ |   ___|  |  | \   |
     |__|  |  |/     \|  | |  | | |   \  \|  |___   |  |  |  |
           \  |\  / \    | |  | | |___/  / \     |  |  |  |  |
            \ | \/   \___| |__| |_______/   \____|  |__|  \  |
             \|                                            \ |
                                                            \|
                                Prowler
   
     E5                        E5                      E5
  Gtr. I                       Gtr. I
                  Play twice   Rhy. Fig. 1
E ||-----------------------||-----------------------|----------------------|
B ||-----------------------||-----------------------|----------------------|
G ||*9-9-9--9-9--9-9--9-9-*||*-9-9-9--9-9--9-9--9-9-|-9-9-9--9-9--9-9-9-9--|
D ||*9-9-9--9-9--9-9--9-9-*||*-9-9-9--9-9--9-9--9-9-|-9-9-9--9-9--9-9-9-9--|
A ||-7-7-7--7-7--7-7--7-7--||-7-7-7--7-7--7-7--7-7--|-7-7-7--7-7--7-7-7-7--|
E ||-----------------------||-----------------------|----------------------|
    
    D5                      E  E5                    E5
                                                     Gtr. II
                            *                        w/Rhy. Fig. 1, w/wah  sl.
E |-----------------------|------------------------||------------------------|
B |-----------------------|------------------------||--8--7--8b(10)r-7--8--\-|
G |-7-7-7--7-7--7-7--7-7--|-9-9-9--9-9--9-9--9-9--*||*-----------------------|
D |-7-7-7--7-7--7-7--7-7--|-9-9-9--9-9--9-9--9-9--*||*-----------------------|
A |-5-5-5--5-5--5-5--5-5--|-7-7-7--7-7--7-7--7-7---||------------------------|
E |-----------------------|-0----------------------||------------------------|
                       *Strike note and let Ring   **\_____
    E5                     E5                       E E5   \_____
                                                                 \_____
                      sl.                     sl.                  Play twice    
E |-----------------------|-----------------------|------------------------||
B |--8--7--8b(10)r-7-8-\--|--8--7--8b(10)r-7-8-\--|-5h7p5h7p5h7p5h7p5h7p5--||
G |-----------------------|-----------------------|-----------------------*||
D |-----------------------|-----------------------|-----------------------*||
A |-----------------------|-----------------------|------------------------||
E |-----------------------|-----------------------|------------------------||
                                                   ** Depress Trem Bar.
    E5                     E5                       D5
  w/Rhy. Fig. 1
  Wah off.               ~~                     ~~                      ~~
E |-----------------------|-----------------------|--------------------------|
B |-----------------------|-----------------------|--------------------------|
G |---12-11-12b(14)-11-12-|--12-11-12b(14)-11-12--|--12-11-12b(14)-11-12-----|
D |-----------------------|-----------------------|--------------------------|
A |-----------------------|-----------------------|--------------------------|
E |-----------------------|-----------------------|--------------------------|
   E E5			    E
                           w/Fill 1                     Gtr. I
     ~~~~~~~~~~~~~~  sl.                       sl.      Fill 1  Let Ring
E |-----------------------|-----------------------|    |---------------------|
B |-----------------------|-----------------------|    |---------------------|
G |-9-----------------\---|--9p7---7--------------|    |--9------------------|
D |-----------------------|------9---9-8-7--------|    |--9------------------|
A |-----------------------|-----------------10-\--|    |--7------------------|
E |-----------------------|-----------------------|    |--0------------------|
    E5                     E5                       D5

                        ~~                     ~~                      ~~
E |-----------------------|-----------------------|--------------------------|
B |-----------------------|-----------------------|--------------------------|
G |---12-11-12b(14)-11-12-|--12-11-12b(14)-11-12--|--12-11-12b(14)-11-12-----|
D |-----------------------|-----------------------|--------------------------|
A |-----------------------|-----------------------|--------------------------|
E |-----------------------|-----------------------|--------------------------|
    E  G5   A5   C5
   w/ Fill 2                    Gtr. I
     ~~~~~~~~~~~~~~~  sl.       Fill 2
E |-----------------------|    |-----------------------|
B |-----------------------|    |-----------------------|
G |-9------------------\--|    |--9--------------5-----|
D |-----------------------|    |--9---5---7------5-----|
A |-----------------------|    |--7---5---7------3-----|
E |-----------------------|    |--0---3---5------------|
    F5                      F5                       E   G5  A5   C5
 Gtr. I
 Rhy. Fig. 2
E ||----------------------|-----------------------|-------------------------|
B ||----------------------|-----------------------|-------------------------|
G ||*10-10-10--10-10-10-10|-10-10-10--10-10-10-10-|--9-------------5--------|
D ||*10-10-10--10-10-10-10|-10-10-10--10-10-10-10-|--9----5--7-----5--------|
A ||-8--8--8---8--8--8--8-|-8--8--8---8--8--8--8--|--7----5--7-----3--------|
E ||----------------------|-----------------------|--0----3--5--------------|
    E5
                                  Gtr. II
  W/Fill 3      Play twice        Fill 3
E |------------------------||    |----------------------|
B |--9---------------------||    |-15b(17)-r-13-15-13-\-|
G |--9-11b(13)-r-9-11-9-\-*||    |----------------------|
D |--9--------------------*||    |----------------------|
A |--7---------------------||    |----------------------|
E |------------------------||    |----------------------|
      C5                     D5                     E5
   Gtr. I
   Rhy. Fig. 3
E ||-----------------------|-----------------------|-------------------------|
B ||-----------------------|-----------------------|-------------------------|
G ||*-5--------------------|-7---------------------|-9-9-9--9-9--9-9--9-9----|
D ||*-5--------------------|-7---------------------|-9-9-9--9-9--9-9--9-9----|
A ||--3--------------------|-5---------------------|-7-7-7--7-7--7-7--7-7----|
E ||-----------------------|-----------------------|-------------------------|
    E5                        C5                     D5
                             Gtr. II
                             w/Rhy. Fig. 3   ~~sl.                  ~~sl.
E |-----------------------||----------------------|-------------------------|
B |-----------------------||----------------------|-------------------------|
G |-9-9-9--9-9--9-9--9-9-*||-12--11--9--7--9---\--|-12--11--9--7--9---\-----|
D |-9-9-9--9-9--9-9--9-9-*||----------------------|-------------------------|
A |-7-7-7--7-7--7-7--7-7--||----------------------|-------------------------|
E |-----------------------||----------------------|-------------------------|
    E5                      E5                      C5

  w/wah                sl.                    sl.  wah off            sl.
E |-----------------------|-----------------------|--------------------------|
B |-----------------------|-----------------------|--------------------------|
G |-8--7--8b(10)-7--8--\--|-8--7--8b(10)-7--8--\--|-12--11--9--7--9----\-----|
D |-----------------------|-----------------------|--------------------------|
A |-----------------------|-----------------------|--------------------------|
E |-----------------------|-----------------------|--------------------------|
   D5                                    E
                                       Gtr. I
                      sl.                       Let Ring
E |-----------------------|            |--------------------------|
B |-----------------------|            |--------------------------|
G |-12--11--9--7--9----\--|            |-9------------------------|
D |-----------------------|            |-9------------------------|
A |-----------------------|            |-7------------------------|
E |-----------------------|            |-0------------------------|

   Gtr. II                            
   Rhy. Fig. 4                       Play 12 times
E ||--------------------------------------------||
B ||--8-8-8--7-7-7--5-5-5--3-3--5-5--7-7--------||
G ||*------------------------------------------*||
D ||*------------------------------------------*||
A ||--------------------------------------------||
E ||--------------------------------------------||
     E                        G5                      A5             E5
    
    Gtr. I
    w/Rhy. Fig. 4 (start on 10th time)                             Play twice
E ||---------------------|------------------------|------------------------||
B ||---------------------|------------------------|------------------------||
G ||*-9------------------|------------------------|----------------9------*||
D ||*-9------------------|-5----------------------|-7--------------9------*||
A ||--7------------------|-5----------------------|-7--------------7-------||
E ||--0------------------|-3----------------------|-5----------------------||

   Gtr. I
   Rhy. Fig. 5
E ||-----------------------|-----------------------|-------------------------|
B ||--5p3---5p3---5p3---5-3|-5p3---5p3---5p3---5-3-|-10p8---10p8---10p8--10-8|
G ||*-----4-----4-----4----|-----4-----4-----4-----|------9------9------9----|
D ||*----------------------|-----------------------|-------------------------|
A ||-----------------------|-----------------------|-------------------------|
E ||-----------------------|-----------------------|-------------------------|

                            Gtr. II
                 Play twice w/Rhy. Fig. 5(start on second time)
E |-----------------------||-----------------------|-------------------------|
B |-5p3---5p3---5p3---5-3-||-10p9--10p8--10p8--10-8|-10p8--10p8--10p8--10--8-|
G |-----4-----4-----4----*||-----9-----9-----9-----|-----9-----9-----9-------|
D |----------------------*||-----------------------|-------------------------|
A |-----------------------||-----------------------|-------------------------|
E |-----------------------||-----------------------|-------------------------|

                           Gtr. I                  Gtr. II w/Gtr.1
E |-----------------------|-----------------------|--------------------------|
B |13p10-13p10-13p12-13-10|-10p8h10p8h10p8h10p8---|-13p10h13p10h13p10h13p10--|
G |-----12----12----12----|-----------------------|--------------------------|
D |-----------------------|-----------------------|--------------------------|
A |-----------------------|-----------------------|--------------------------|
E |-----------------------|-----------------------|--------------------------|
    E5                      D5                       C5
  
  Gtr. I
  Rhy. Fig. 6
E ||-----------------------|-----------------------|--------------------------|
B ||-----------------------|-----------------------|--------------------------|
G ||*-9-9-9--9-9-9--9-9-9--|-7-7-7--7-7-7--7-7-7---|-5-5-5--5-5-5--5-5-5------|
D ||*-9-9-9--9-9-9--9-9-9--|-7-7-7--7-7-7--7-7-7---|-5-5-5--5-5-5--5-5-5------|
A ||--7-7-7--7-7-7--7-7-7--|-5-5-5--5-5-5--5-5-5---|-3-3-3--3-3-3--3-3-3------|
E ||-----------------------|-----------------------|--------------------------|


E |-----------------------||
B |-----------------------||
G |---------------5--7---*||
D |--9--9---------5--7---*||
A |--9--9---------3--5----||
E |--7--7-----------------||


  Solo
  Gtr. II              ~~~
E |-------------------------------12-15p12----12-15p12---------------------
B |-----------------------15b(17)----------15----------15-15-17b(19)-r-p-12
G |--/-12-12-14-14b(16)----------------------------------------------------
D |------------------------------------------------------------------------
A |------------------------------------------------------------------------
E |------------------------------------------------------------------------


E |------------------------------------------------------------------------
B |----12-15p12-15p12----12-15p12-15p12----12-15p12-15p12----12-15p12-15p12
G |-14----------------14----------------14----------------14---------------
D |------------------------------------------------------------------------
A |------------------------------------------------------------------------
E |------------------------------------------------------------------------

                           ~~~
E |------------------------------------------------------------------------
B |-----------15-17-17b(19)----15-17p15-17p15----15-17p15-17p15----15-17p15
G |-14\--/-16---------------------------------16----------------16---------
D |------------------------------------------------------------------------
A |------------------------------------------------------------------------
E |------------------------------------------------------------------------


E |------------------------------------------------------------------------
B |-17p15----15-17p15-17p15----15-17p15-17p15----15-17p15-17p15----15-17p15
G |-------16----------------16----------------16----------------16---------
D |------------------------------------------------------------------------
A |------------------------------------------------------------------------
E |------------------------------------------------------------------------


E |----------------------------------------------------------------15-17---
B |-17p15----15-17p15-17p15----15-17p15-17p15----15-17p15-17p15-17---------
G |-------16----------------16----------------16---------------------------
D |------------------------------------------------------------------------
A |------------------------------------------------------------------------
E |------------------------------------------------------------------------

                   ~~~            ~~~             ~~~
E |-18b(19)-18b(20)-19b(21)-19b(22)-21b(23)-21b(24)----22-22-22-22-21-21-21
B |----------------------------------------------------20-20---------------
G |------------------------------------------------------------------------
D |------------------------------------------------------------------------
A |------------------------------------------------------------------------
E |------------------------------------------------------------------------

                                        end of solo
E |-19-19-19-17-17-17---15-17b(19)-r-15-\----------------------------------
B |------------------------------------------------------------------------
G |------------------------------------------------------------------------
D |------------------------------------------------------------------------
A |------------------------------------------------------------------------
E |------------------------------------------------------------------------

   Gtr. II
   w/Rhy. Fig. 6 Play 6 times                        Play twice
E ||---------------------||----------------------------------||
B ||--8--7--5--3--5-\----||--8--7--5--3--5--5h7p5h7p5h7p5h7--||
G ||*-------------------*||*--------------------------------*||
D ||*-------------------*||*--------------------------------*||
A ||---------------------||----------------------------------||
E ||---------------------||----------------------------------||


The rest is repeating riffs from above, so i think you can get it on your own.

This tab is probably not 100% correct because i had to get it by ear and 
i was very confused at some parts, so if you have any questions, comments, 

If you want to hear a REAL guitarist, pick up a Buckethead Cd, or go to





Comments


Popular Iron Maiden tabs & chords
2 Am Bass Tabs
Age Of Innocence Bass Tabs
Legacy Bass Tabs
Aces High 7 Tabs
Genghis Kahn Tabs
Ghost Of The Navigator 1 Tabs
Hallowed By Thy Name Tabs
Im A Mover Tabs
Phantom Of The Opera 4 Tabs
Journeyman Ukulele


Song lyrics



↑ Back to top | Tablatures and chords are parodies/interpretations of the original songs. You may use it for private study, scholarship, research or language learning purposes only
© 2014 AZChords.com Contact us | Privacy policy | DMCA | Add/correct tabs | Request tabs | Top 50 tabs