» » »

Iron Maiden, Prodigal Son Tabs (ver.3)

Artists:  A B C D E F G H I J K L M N O P Q R S T U V W X Y Z # 

Prodigal Son Tabs (ver.3)

Iron Maiden Tabs
Rating:
0/5 (0 votes)
Hard to play? Try these video lessons and learn fast.
                prodigal son


iron maiden





solo 1
e:------7----------------------15b-15-12-12~~~~-12-----------------------------------------|
B:--------8b~~--------------12---------------------15-12h14p12----12-----------------------|
G:-9b~---------9-7-9-------------------------------------------15----15-12h14p12-14b-12-14-|
D:--------------------7~~~-----------------------------------------------------------------|
A:-----------------------------------------------------------------------------------------|
E:-----------------------------------------------------------------------------------------|

e:-----------------------------------------------------------------------------------------|
B:-----------------------------------------------------------------------------------------|
G:-12h14p12--------------------------------------------------------------------------------|
D:-----------14-12h14p12----------------------------------------------12----12h14p12-14-14~|
A:-----------------------14-12h14p12----------------12----12h14p12-14----14----------------|
E:-----------------------------------15-12h15p12-15----15----------------------------------|

e:-17-17-14----14-----------15-15-12-------------------------------------------------------|
B:----------15----15-----------------13----15b-15b--15-15-17-17-15-15-12-12-14-14-15-15-17-|
G:-------------------14~~~--------------12----------14-14-16-16-14-14-11-11-13-13-14-14-16-|
D:-----------------------------------------------------------------------------------------|
A:-----------------------------------------------------------------------------------------|
E:-----------------------------------------------------------------------------------------|

:-------------------------------------------21b-----------------------------------------|
:17-15-15-17-17-15-15-12-12/15-15-15--17-17-----17-17--------17-20----17-20----17h20p17-|
:16-14-14-16-16-14-14-11-11/14-14-14-------------------19-19-------19--------19---------|
:---------------------------------------------------------------------------------------|
:---------------------------------------------------------------------------------------|
:---------------------------------------------------------------------------------------|

e:-------------------------------------12------------------------------------------------|
B:-----17-----17--------------------------12-15-12---------------------12h15p12----12----|
G:-19b----19b----19b---14b-14p12-14~~~-------------15-14-12-14~~~--14b----------15----15-|
D:---------------------------------------------------------------------------------------|
A:---------------------------------------------------------------------------------------|
E:---------------------------------------------------------------------------------------|

e:-------------------------------------------------------------|
B:-------------------------------------------------------------|
G:-12h14p12----12----------------------------------------------|
D:----------14----14-12h14p12----12----------------------------|
A:----------------------------14----14-12h14p12----12----------|
E:----------------------------------------------15----15-12-15-|

solo 2
:-12-12-12-------------12------------------------------------------------------------------|
:----------15-12-15b~~----15-12h14p12---------------------15-15b-------------------------12|
:-------------------------------------15-12-14b-14p12-14b----14b--14p12-11~~~~--11-12-14---|
:------------------------------------------------------------------------------------------|
:------------------------------------------------------------------------------------------|
:------------------------------------------------------------------------------------------|

e:-------12-14-15-15--14-15-14-----14----------------------14-15-17-17~~~~--15-17-17b~~~~~-|
B:-13-15------------------------17----17-15-17/19-19-17-17---------------------------------|
G:-----------------------------------------------------------------------------------------|
D:-----------------------------------------------------------------------------------------|
A:-----------------------------------------------------------------------------------------|
E:-----------------------------------------------------------------------------------------|

this solo brings a lot memory since it was the first iron maiden solo that i learn by ear
            

comments powered by Disqus
↑ Back to top | Iron Maiden Tabs for Prodigal Son. Lyrics for acoustic guitar and electric guitar. Tablatures and chords are parodies/interpretations of the original songs. You may use it for private study, scholarship, research or language learning purposes only