>
 >
Murders In The Rue Morgue

Murders In The Rue Morgue Guitar Tabs

Iron Maiden - Murders In The Rue Morgue chords, tabs, tablatures, lyrics

Guitar lessons | Add/correct | Request | Top 50 tabs Artists:  A B C D E F G H I J K L M N O P Q R S T U V W X Y Z 0-9

Murders In The Rue Morgue Guitar Tabs – Iron Maiden

CD, Sheet music, Poster

Do you like Murders In The Rue Morgue? Share with your friends now
Bass TabsBass Tabs v2Bass Tabs v3TabsTabs v2
Iron Maiden


E||------------------|--------0------------0------|--------0------------0------|
B||------------------|------0---0-1------1---1-3--|------0---0-1------0---0-1--|
G||------------------|----------------------------|----------------------------|
D||------------------|----------------------------|--0------------0------------|
A||------------------|--2------------3------------|----------------------------|
E||------------------|----------------------------|----------------------------|



--------0------------0------|--------0------------0------|--------0------------0------|
------0---0-1------1---1-3--|------0---0-1------0---0-1--|------0---0-1------1---1-3--|
----------------------------|----------------------------|----------------------------|
----------------------------|--0------------0------------|----------------------------|
--2------------3------------|----------------------------|--2------------3------------|
----------------------------|----------------------------|----------------------------|



--------0------------0------|--------0------------0------|--------0------------0------|
------0---0-1------0---0-1--|------0---0-1------1---1-3--|------0---0-1------0---0-1--|
----------------------------|----------------------------|----------------------------|
--0------------0------------|----------------------------|--0------------0------------|
----------------------------|--2------------3------------|----------------------------|
----------------------------|----------------------------|----------------------------|



------------------------------|----------------------------------|
--12~-----10-12-13~-----12-13-|--15----15r---15-15--15--13-12-10-|
------------------------------|----------------------------------|
------------------------------|----------------------------------|
------------------------------|----------------------------------|
------------------------------|----------------------------------|



------------------------------|--------------17-15-14-12-15-14-12-10-|
--12~-----10-12-13~-----12-13-|--15----15r---------------------------|
------------------------------|--------------------------------------|
------------------------------|--------------------------------------|
------------------------------|--------------------------------------|
------------------------------|--------------------------------------|



------12-14-15-14-12------12-14-15-14-12----|--------------17-15-14-12-15-14-12-10-|
--12~----------------13~-----------------13-|--15----15r---------------------------|
--------------------------------------------|--------------------------------------|
--------------------------------------------|--------------------------------------|
--------------------------------------------|--------------------------------------|
--------------------------------------------|--------------------------------------|



------12-14-15-14-12------12-14-15-14-12-10-|--------------------|------------------|
--12~----------------13~--------------------|--15~---------------|------------------|
--------------------------------------------|--------------------|------------------|
--------------------------------------------|--------------------|------------------|
--------------------------------------------|--------------------|------------------|
--------------------------------------------|--------------------|------------------|



------------------|------------------|-------------------|-------------------------|
------------------|------------------|-------------------|-------------------------|
------------------|------------------|-------------------|-------------------------|
------------------|------------------|----------------9--|----9--------9--9--------|
------------------|------------------|----------------7--|----7--7--7--7--7--7--7--|
------------------|------------------|-------------------|----------------------5--|



-------------------------|-------------------------|-------------------------|
-------------------------|-------------------------|-------------------------|
-------------------------|-------------------------|-------------------------|
----------------------6--|----6--------6--6-----7--|----0--4--0--5--4--0--9--|
----7--------7--7-----4--|----4--4--4--4--4--4--5--|----------------------7--|
----5--5--5--5--5--5-----|-------------------------|-------------------------|



-------------------------|-------------------------|-------------------------|
-------------------------|-------------------------|-------------------------|
-------------------------|-------------------------|-------------------------|
----9--------9--9--------|----------------------6--|----6--------6--6-----7--|
----7--7--7--7--7--7--7--|----7--------7--7-----4--|----4--4--4--4--4--4--5--|
----------------------5--|----5--5--5--5--5--5-----|-------------------------|



----------------------|-------------------------|-------------------------|
----------------------|-------------------------|-------------------------|
---------7------------|-------------------------|-------------------------|
----7----5----7----9--|----9--------9--9--------|----------------------6--|
----5---------5----7--|----7--7--7--7--7--7--7--|----7--------7--7-----4--|
----------------------|----------------------5--|----5--5--5--5--5--5-----|



-------------------------|-------------------------|-------------------------|
-------------------------|-------------------------|-------------------------|
-------------------------|-------------------------|-------------------------|
----6--------6--6-----7--|----0--4--0--5--4--0--9--|----9--------9--9--------|
----4--4--4--4--4--4--5--|----------------------7--|----7--7--7--7--7--7--7--|
-------------------------|-------------------------|----------------------5--|



-------------------------|-------------------------|----------------------|
-------------------------|-------------------------|----------------------|
-------------------------|-------------------------|---------7------------|
----------------------6--|----6--------6--6-----7--|----7----5----7-------|
----7--------7--7-----4--|----4--4--4--4--4--4--5--|----5---------5----7--|
----5--5--5--5--5--5-----|-------------------------|----------------------|



-----------------------|-------------------------|-----------------------|
-----------------------|-------------------------|-----------------------|
-----------------------|-------------------------|-----------------------|
-------------5---------|-------------------------|-------------5----7~---|
----7--5--7-------7~---|----5--5--5--5--4h-0--7--|----7--5--7------------|
-----------------------|-------------------------|-----------------------|



--------------------------|-----------------------|-------------------------|
--------------------------|-----------------------|-------------------------|
--4--4--4--4--4-----------|-----------------------|-------------------------|
-----------------7--5-----|-------------5---------|-------------------------|
-----------------------7--|----7--5--7-------7~---|----5--5--5--5--4h-0--7--|
--------------------------|-----------------------|-------------------------|



-------------------------|------------------|-------------------|
-------------------------|------------------|-------------------|
-------------------------|------------------|-------------------|
----------------------2--|------------------|----------------9--|
----5-----------------2--|------------------|----------------7--|
-------7--5--7--5--3--0--|------------------|-------------------|



-------------------------|-------------------------|-------------------------|
-------------------------|-------------------------|-------------------------|
-------------------------|-------------------------|-------------------------|
----9--------9--9--------|----------------------6--|----6--------6--6-----7--|
----7--7--7--7--7--7--7--|----7--------7--7-----4--|----4--4--4--4--4--4--5--|
----------------------5--|----5--5--5--5--5--5-----|-------------------------|



-------------------------|-------------------------|-------------------------|
-------------------------|-------------------------|-------------------------|
-------------------------|-------------------------|-------------------------|
----0--4--0--5--4--0--9--|----9--------9--9--------|----------------------6--|
----------------------7--|----7--7--7--7--7--7--7--|----7--------7--7-----4--|
-------------------------|----------------------5--|----5--5--5--5--5--5-----|



-------------------------|----------------------|-------------------------|
-------------------------|----------------------|-------------------------|
-------------------------|---------7------------|-------------------------|
----6--------6--6-----7--|----7----5----7----9--|----9--------9--9--------|
----4--4--4--4--4--4--5--|----5---------5----7--|----7--7--7--7--7--7--7--|
-------------------------|----------------------|----------------------5--|



-------------------------|-------------------------|-------------------------|
-------------------------|-------------------------|-------------------------|
-------------------------|-------------------------|-------------------------|
----------------------6--|----6--------6--6-----7--|----0--4--0--5--4--0--9--|
----7--------7--7-----4--|----4--4--4--4--4--4--5--|----------------------7--|
----5--5--5--5--5--5-----|-------------------------|-------------------------|



-------------------------|-------------------------|-------------------------|
-------------------------|-------------------------|-------------------------|
-------------------------|-------------------------|-------------------------|
----9--------9--9--------|----------------------6--|----6--------6--6-----7--|
----7--7--7--7--7--7--7--|----7--------7--7-----4--|----4--4--4--4--4--4--5--|
----------------------5--|----5--5--5--5--5--5-----|-------------------------|



----------------------|-----------------------|-------------------------|
----------------------|-----------------------|-------------------------|
---------7------------|-----------------------|-------------------------|
----7----5----7-------|-------------5---------|-------------------------|
----5---------5----7--|----7--5--7-------7~---|----5--5--5--5--4h-0--7--|
----------------------|-----------------------|-------------------------|



-----------------------|--------------------------|-----------------------|
-----------------------|--------------------------|-----------------------|
-----------------------|--4--4--4--4--4-----------|-----------------------|
-------------5----7~---|-----------------7--5-----|-------------5---------|
----7--5--7------------|-----------------------7--|----7--5--7-------7~---|
-----------------------|--------------------------|-----------------------|



-------------------------|-------------------------|------------------|------------------|
-------------------------|-------------------------|------------------|------------------|
-------------------------|-------------------------|------------------|------------------|
-------------------------|----------------------2--|------------------|------------------|
----5--5--5--5--4h-0--7--|----5-----------------2--|------------------|------------------|
-------------------------|-------7--5--7--5--3--0--|------------------|------------------|



------------------|------------------|----------------------------------|
------------------|------------------|----------------------------------|
------------------|------------------|--14--12--14--12--14--12--14--14r-|
------------------|------------------|--12--12--12--12--12--12--12------|
------------------|------------------|----------------------------------|
------------------|------------------|----------------------------------|



------------------------|------------------------------|------------------|
------------------------|------------------------------|------------------|
----12--------------12--|----12--14--16--12------------|------------------|
----------14~-----------|----------------------12--14~-|------------------|
------------------------|------------------------------|------------------|
------------------------|------------------------------|------------------|



----------------------------------|------------------------|
----------------------------------|------------------------|
--14--12--14--12--14--12--14--14r-|----12--------------12--|
--12--12--12--12--12--12--12------|----------14~-----------|
----------------------------------|------------------------|
----------------------------------|------------------------|



--------------------------------|-------------------|-----------------------|
--------------------------------|-------------------|-----------------------|
----12--12--12--12--12--12--11--|-------------------|-----------------------|
--------------------------------|-------------------|-------------5---------|
--------------------------------|----------------7--|----7--5--7-------7~---|
--------------------------------|-------------------|-----------------------|



-------------------------|-----------------------|--------------------------|
-------------------------|-----------------------|--------------------------|
-------------------------|-----------------------|--4--4--4--4--4-----------|
-------------------------|-------------5----7~---|-----------------7--5-----|
----5--5--5--5--4h-0--7--|----7--5--7------------|-----------------------7--|
-------------------------|-----------------------|--------------------------|



-----------------------|-------------------------|-------------------------|
-----------------------|-------------------------|-------------------------|
-----------------------|-------------------------|-------------------------|
-------------5---------|-------------------------|----------------------2--|
----7--5--7-------7~---|----5--5--5--5--4h-0--7--|----5-----------------2--|
-----------------------|-------------------------|-------7--5--7--5--3--0--|



------------------|-------------------|-------------------------|
------------------|-------------------|-------------------------|
------------------|-------------------|-------------------------|
------------------|----------------9--|----9--------9--9--------|
------------------|----------------7--|----7--7--7--7--7--7--7--|
------------------|-------------------|----------------------5--|



-------------------------|-------------------------|-------------------------|
-------------------------|-------------------------|-------------------------|
-------------------------|-------------------------|-------------------------|
----------------------6--|----6--------6--6-----7--|----0--4--0--5--4--0--9--|
----7--------7--7-----4--|----4--4--4--4--4--4--5--|----------------------7--|
----5--5--5--5--5--5-----|-------------------------|-------------------------|



-------------------------|-------------------------|-------------------------|
-------------------------|-------------------------|-------------------------|
-------------------------|-------------------------|-------------------------|
----9--------9--9--------|----------------------6--|----6--------6--6-----7--|
----7--7--7--7--7--7--7--|----7--------7--7-----4--|----4--4--4--4--4--4--5--|
----------------------5--|----5--5--5--5--5--5-----|-------------------------|



----------------------|-------------------------|-------------------------|
----------------------|-------------------------|-------------------------|
---------7------------|-------------------------|-------------------------|
----7----5----7----9--|----9--------9--9--------|----------------------6--|
----5---------5----7--|----7--7--7--7--7--7--7--|----7--------7--7-----4--|
----------------------|----------------------5--|----5--5--5--5--5--5-----|



-------------------------|-------------------------|-------------------------|
-------------------------|-------------------------|-------------------------|
-------------------------|-------------------------|-------------------------|
----6--------6--6-----7--|----0--4--0--5--4--0--9--|----9--------9--9--------|
----4--4--4--4--4--4--5--|----------------------7--|----7--7--7--7--7--7--7--|
-------------------------|-------------------------|----------------------5--|



-------------------------|-------------------------|----------------------|
-------------------------|-------------------------|----------------------|
-------------------------|-------------------------|---------7------------|
----------------------6--|----6--------6--6-----7--|----7----5----7-------|
----7--------7--7-----4--|----4--4--4--4--4--4--5--|----5---------5----7--|
----5--5--5--5--5--5-----|-------------------------|----------------------|



-----------------------|-------------------------|-----------------------|
-----------------------|-------------------------|-----------------------|
-----------------------|-------------------------|-----------------------|
-------------5---------|-------------------------|-------------5----7~---|
----7--5--7-------7~---|----5--5--5--5--4h-0--7--|----7--5--7------------|
-----------------------|-------------------------|-----------------------|



--------------------------|-----------------------|-------------------------|
--------------------------|-----------------------|-------------------------|
--4--4--4--4--4-----------|-----------------------|-------------------------|
-----------------7--5-----|-------------5---------|-------------------------|
-----------------------7--|----7--5--7-------7~---|----5--5--5--5--4h-0--7--|
--------------------------|-----------------------|-------------------------|



-------------------------|------------------|------------------|------------------|
-------------------------|------------------|------------------|------------------|
-------------------------|------------------|------------------|------------------|
----------------------2--|------------------|------------------|------------------|
----5-----------------2--|------------------|------------------|------------------|
-------7--5--7--5--3--0--|------------------|------------------|------------------|



-----------------------|-----------------------|-------------------------|
-----------------------|-----------------------|---------------------12b-|
-----------------------|-----------------------|-------------------------|
-----------------------|-----------------------|-------------------------|
----9--9--9--9--7------|----9--9--9--9--7------|----9--9--9--9--7--------|
----7--7--7--7--5------|----7--7--7--7--5------|----7--7--7--7--5--------|



----------------------------|-----------------------|-----------------------|
----12--10--8--10--8--7-----|-----------------------|-----------------------|
-------------------------9--|-----------------------|-----------------------|
----------------------------|-----------------------|-----------------------|
----------------------------|----9--9--9--9--7------|----9--9--9--9--7------|
----------------------------|----7--7--7--7--5------|----7--7--7--7--5------|



-------------------------|----------------------------|------------------------|
---------------------12b-|----12--10--8--10--8--7-----|----15b-----15b-----15~-|
-------------------------|-------------------------9--|------------------------|
-------------------------|----------------------------|------------------------|
----9--9--9--9--7--------|----------------------------|------------------------|
----7--7--7--7--5--------|----------------------------|------------------------|



--------------------------------|------------------------|----------------------------|
----15--13--12--13--12----------|----12b-----12b-----12b-|----12--10--8--10--8--7-----|
------------------------14--12~-|------------------------|-------------------------9~-|
--------------------------------|------------------------|----------------------------|
--------------------------------|------------------------|----------------------------|
--------------------------------|------------------------|----------------------------|



------------------------|--------------------------------|------------------------|
----15b-----15b-----15~-|----15--13--12--13--12----------|----12b-----12b-----12b-|
------------------------|------------------------14--12~-|------------------------|
------------------------|--------------------------------|------------------------|
------------------------|--------------------------------|------------------------|
------------------------|--------------------------------|------------------------|



----------------------------|------------------------|----------------------------|
----12--10--8--10--8--7-----|----12b-----12b-----12b-|----12--10--8--10--8--7-----|
-------------------------9~-|------------------------|-------------------------9~-|
----------------------------|------------------------|----------------------------|
----------------------------|------------------------|----------------------------|
----------------------------|------------------------|----------------------------|



-------------------------------|----------------------------------|
-------------------------------|----------------------------------|
-------------------------------|------11------11--12--11--12--14--|
----9--10--12--10--12--14--12--|--14------14----------------------|
-------------------------------|----------------------------------|
-------------------------------|----------------------------------|



----------------------------------|--------------12------12--14--12--|
----------12------12--13--12--13--|--15--13--15------15--------------|
--12--14------14------------------|----------------------------------|
----------------------------------|----------------------------------|
----------------------------------|----------------------------------|
----------------------------------|----------------------------------|



------------------------|--------------------------------|------------------------|
----15b-----15b-----15~-|----15--13--12--13--12----------|----12b-----12b-----12b-|
------------------------|------------------------14--12~-|------------------------|
------------------------|--------------------------------|------------------------|
------------------------|--------------------------------|------------------------|
------------------------|--------------------------------|------------------------|



----------------------------|----14b-----14r---12--14~-|------------------|
----12--10--8--10--8--7-----|--------------------------|------------------|
-------------------------9~-|--------------------------|------------------|
----------------------------|--------------------------|------------------|
----------------------------|--------------------------|------------------|
----------------------------|--------------------------|------------------|


-------------------------|----------------------|-----------------------|
-------------------------|----------------------|-----------------------|
-------------------------|---------5------------|----7----7--9----9-----|
----5--5--5--5--4--2--4--|----5----3----5----7--|----5----5--7----7-----|
----3--3--3--3--2--0--2--|----3---------3----5--|--------------------7--|
-------------------------|----------------------|-----------------------|



-----------------------|-------------------------|-----------------------|
-----------------------|-------------------------|-----------------------|
-----------------------|-------------------------|-----------------------|
-------------5---------|-------------------------|-------------5----7~---|
----7--5--7-------7~---|----5--5--5--5--4h-0--7--|----7--5--7------------|
-----------------------|-------------------------|-----------------------|



--------------------------|-----------------------|-------------------------|
--------------------------|-----------------------|-------------------------|
--4--4--4--4--4-----------|-----------------------|-------------------------|
-----------------7--5-----|-------------5---------|-------------------------|
-----------------------7--|----7--5--7-------7~---|----5--5--5--5--4h-0--7--|
--------------------------|-----------------------|-------------------------|



-------------------------|------------------|-------------------|
-------------------------|------------------|-------------------|
-------------------------|------------------|-------------------|
----------------------2--|------------------|----------------9--|
----5-----------------2--|------------------|----------------7--|
-------7--5--7--5--3--0--|------------------|-------------------|



-------------------------|-------------------------|-------------------------|
-------------------------|-------------------------|-------------------------|
-------------------------|-------------------------|-------------------------|
----9--------9--9--------|----------------------6--|----6--------6--6-----7--|
----7--7--7--7--7--7--7--|----7--------7--7-----4--|----4--4--4--4--4--4--5--|
----------------------5--|----5--5--5--5--5--5-----|-------------------------|



-------------------------|-------------------------|-------------------------|
-------------------------|-------------------------|-------------------------|
-------------------------|-------------------------|-------------------------|
----0--4--0--5--4--0--9--|----9--------9--9--------|----------------------6--|
----------------------7--|----7--7--7--7--7--7--7--|----7--------7--7-----4--|
-------------------------|----------------------5--|----5--5--5--5--5--5-----|



-------------------------|----------------------|-------------------------|
-------------------------|----------------------|-------------------------|
-------------------------|---------7------------|-------------------------|
----6--------6--6-----7--|----7----5----7----9--|----9--------9--9--------|
----4--4--4--4--4--4--5--|----5---------5----7--|----7--7--7--7--7--7--7--|
-------------------------|----------------------|----------------------5--|



-------------------------|-------------------------|-------------------------|
-------------------------|-------------------------|-------------------------|
-------------------------|-------------------------|-------------------------|
----------------------6--|----6--------6--6-----7--|----0--4--0--5--4--0--9--|
----7--------7--7-----4--|----4--4--4--4--4--4--5--|----------------------7--|
----5--5--5--5--5--5-----|-------------------------|-------------------------|



-------------------------|-------------------------|-------------------------|
-------------------------|-------------------------|-------------------------|
-------------------------|-------------------------|-------------------------|
----9--------9--9--------|----------------------6--|----6--------6--6-----7--|
----7--7--7--7--7--7--7--|----7--------7--7-----4--|----4--4--4--4--4--4--5--|
----------------------5--|----5--5--5--5--5--5-----|-------------------------|



----------------------|-----------------------|-------------------------|
----------------------|-----------------------|-------------------------|
---------7------------|-----------------------|-------------------------|
----7----5----7-------|-------------5---------|-------------------------|
----5---------5----7--|----7--5--7-------7~---|----5--5--5--5--4h-0--7--|
----------------------|-----------------------|-------------------------|



-----------------------|--------------------------|-----------------------|
-----------------------|--------------------------|-----------------------|
-----------------------|--4--4--4--4--4-----------|-----------------------|
-------------5----7~---|-----------------7--5-----|-------------5---------|
----7--5--7------------|-----------------------7--|----7--5--7-------7~---|
-----------------------|--------------------------|-----------------------|



-------------------------|-------------------------|------------------|------------------|
-------------------------|-------------------------|------------------|------------------|
-------------------------|-------------------------|------------------|------------------|
-------------------------|----------------------2--|------------------|------------------|
----5--5--5--5--4h-0--7--|----5-----------------2--|------------------|------------------|
-------------------------|-------7--5--7--5--3--0--|------------------|------------------|



------------------|------------------||
------------------|------------------||
------------------|------------------||
------------------|------------------||
------------------|------------------||
------------------|------------------||





Comments


Popular Iron Maiden tabs & chords
Heaven Can Wait Bass Tabs
Aces High Tabs
Blood On The World's Hands 1 Tabs
Brave New World 1 Tabs
Brawe New World Tabs
Dream Of Mirrors Tabs
Mother Russia 3 Tabs
The Thin Line Between Love And Hate Tabs
When Two Worlds Collide Tabs
Where Eagles Dare 1 Tabs


Song lyrics



↑ Back to top | Tablatures and chords are parodies/interpretations of the original songs. You may use it for private study, scholarship, research or language learning purposes only
© 2014 AZChords.com Contact us | Privacy policy | DMCA | Add/correct tabs | Request tabs | Top 50 tabs