>
 >
Mother Russia

Mother Russia Bass Tabs

Iron Maiden - Mother Russia chords, tabs, tablatures, lyrics

Guitar lessons | Add/correct | Request | Top 50 tabs Artists:  A B C D E F G H I J K L M N O P Q R S T U V W X Y Z 0-9

Mother Russia Bass Tabs – Iron Maiden

CD, Sheet music, Poster

Do you like Mother Russia? Share with your friends now
Bass TabsTabsTabs v2Tabs v3
Mother Russia by Iron Maiden
Standard Tuning

Intro
G||-----------15--12--14--------------|
D||--12-12-12--------------15-14-15---|
A||-----------------------------------|
E||-----------------------------------|

G|-----------15--12--14---------------|
D|--12-12-12--------------15-14-15--14|
A|------------------------------------|
E|------------------------------------|

G|-----------15--12--14--------------|
D|--12-12-12--------------15-14-15---|
A|-----------------------------------|
E|-----------------------------------|
			
G|-----------15--12--14--------------------------||
D|--12-12-12-------------15-14-15--14---12-11-12-||
A|-----------------------------------------------||
E|-----------------------------------------------||

G||---2--2--3--0--2--2--0--0-|    |---------0-----0------||
D||--0--0--0--0--0--3--0--2--| x3 |---3--3-----3-----2-0-||
A||--------------------------|    |--3--3--3--3--3--3----||
E||--------------------------|    |----------------------||

G||-------------------5-------| |-------------------5---|
D||----7--7--5-7-8--8---7-5---| |----7--7--5-7-8--8---7-|___
A||--5----------------------8-| |--5--------------------|   |
E||---------------------------| |-----------------------|   |
                                                            |__x2
  |-------------------5-------| |------------------------|| |
  |----7--7--5-7-8--8---7-5---| |----5--5--2-3-5-5-3-2-0-||_| 
  |--5----------------------8-| |--3---------------------||  
  |---------------------------| |------------------------||


(Verse 1)
     
G||-------------------------------------| |------------------------------|
D||-------------------------------------| |------------------------------|
A||--5---7--8---5---10----10-----8--8---| |--5----7--8--5---10---10----8-|
E||-------------------------------------| |------------------------------|


  |----------------------------------------|
  |----------------------------------------|
  |--5-----7---8-----5---10--10-----8---8--|
  |----------------------------------------|

     swirling round like ghosts in the snow
  |----------------------------------------||
  |----------------------------------------||
  |--3-----5----6---3------10-----10-------||
  |------------------------------------12--||

verse 1  part 2
    
G||-------------------------------| |-------------------------------||
D||----------------8-8-8-10-8-7---| |--------------------8-8-8-10-7-||
A||--8--10--12--8---------------8-| |--8-----10--12---8-------------||
E||-------------------------------| |-------------------------------||

  |----------------------------------------|
  |----------------------------------------|
  |--5-----7---8-----5---10--10-----8---8--|
  |----------------------------------------|
   
  |----------------------------||
  |----------------------------||
  |--3--5--6--3----10--10------||
  |-------------------------12-||

G||-------------------5-------| |-------------------5---|
D||----7--7--5-7-8--8---7-5---| |----7--7--5-7-8--8---7-|___
A||--5----------------------8-| |--5--------------------|   |
E||---------------------------| |-----------------------|   |
                                                            |__x2
  |-------------------5-------| |------------------------|| |
  |----7--7--5-7-8--8---7-5---| |----5--5--2-3-5-5-3-2-0-||_| 
  |--5----------------------8-| |--3---------------------||  
  |---------------------------| |------------------------||


(Interlude 1)             	*1				    *2
G||------4-4-5-5-----4-4-------------| |------4-4-5-5-----4-4-------|
D||--2-2---------7-7-----5-5-7-7-4-4-| |--2-2---------7-7-----5-5-4-|
A||----------------------------------| |----------------------------|
E||----------------------------------| |----------------------------|

  repeat      |------------------------|
  interlude 1 |------5-5-7-7-5-5-7-4---|
  *1          |--5-5-----------------5-|  repeat entire interlude 1 
  then play   |------------------------|

(Interlude 2)  	*1				*2
G||----------------------------------| |----------------------------|
D||------5-5-6-6-3-3-5-5-1-1-3-3-0-0-| |------5-5-6-6-3-3-5-5-1-1-0-|
A||--3-3-----------------------------| |--3-3-----------------------|
E||----------------------------------| |----------------------------|

  repeat      |----------------------------|  Now play interlude 2 *1
  interlude 2 |------1-1-3-3-1-1-3-3-0-0---|  then 2 *2 and 2 *1 again
  *1	      |--3-3---------------------3-|
  then play   |----------------------------|	Then play this:


G||--------------------------||
D||------1-1-3-3-1-1-3-3-0-0-||
A||--1-1---------------------|| 
E||--------------------------||    

G||----------------------------------------------|
D||-------2-----------2---------------------4--2-|
A||--2--5--------2--5--------2--5--3-------------|
E||----------------------------------------------|

  |---------------------------------------------||
  |-------2-----------2-----------------------2-||
  |--2--5--------2--5--------2--5--3--------4---||
  |---------------------------------------------||


(During Solo)
G||----------------------------------------||
D||----------------------------------------|| x4
A||----------------------------------------||
E||--2-2--2--2-2-2--2--2-2-2--2--2-2-2-2-5-||

G||----------------------------------------||
D||----------------------------------------|| x4
A||--3-3--3--3-3-3--3--3-3-3--3--3-3-3-3-6-||
E||----------------------------------------||
(Third Solo Riff)
G||---------------------------------|-----------------------------------|
D||---------------------------------|-----------------------------------|
A||7-7-7-7-7-7-7-7-7-7-7-7-9-9-10-10|9-9-9-9-9-9-9-9-9-9-9-9-10-10-12-12|
E||---------------------------------|-----------------------------------|

  |---------------------------------------------------|
  |---------------------------------------------------|
  |--10-10-10-10-10-10-10-10--10-10-10-10-12-12-14-14-|
  |---------------------------------------------------|

  |----8-7-5-7-5---------------------||
  |--5-----------8-7-8-7-5---5-------||  (Play 3rd solo riff
  |------------------------8---8-5---||       three times)
  |--------------------------------8-||


(Verse 2)
G||--------------------------------------------------------------|
D||--------------------------------------------------------------|
A||5-7--8--5--10--10-----------5------7----8-----5-------10-10--7|
E||----------------------10--------------------------------------|

  |--------------------------------------------------------------|
  |--------------------------------8p7-----7---------------------|
  |7--7--8--10---7-7-7--8--10----7-----10----10--8--7---8-8--7--5|
  |--------------------------------------------------------------|

Thanks, please rate it after you learn it.
_TheBassist01_





Comments


Popular Iron Maiden tabs & chords
Afraid To Shoot Strangers 2 Bass Tabs
Charlotte The Harlot Bass Tabs
Dont Look To The Eyes Of A Stranger Bass Tabs
Genghis Khan Bass Tabs
Blood Brothers Drum Tabs
Brave New World 2 Tabs
Charlotte The Harlot Tabs
Fear Of The Dark Tabs
The Fugitive Tabs
Wasting Love Tabs


Song lyrics



↑ Back to top | Tablatures and chords are parodies/interpretations of the original songs. You may use it for private study, scholarship, research or language learning purposes only
© 2014 AZChords.com Contact us | Privacy policy | DMCA | Add/correct tabs | Request tabs | Top 50 tabs