>
 >
Mother Russia 3

Mother Russia 3 Guitar Tabs

Iron Maiden - Mother Russia 3 chords, tabs, tablatures, lyrics

Guitar lessons | Add/correct | Request | Top 50 tabs Artists:  A B C D E F G H I J K L M N O P Q R S T U V W X Y Z 0-9

Mother Russia 3 Guitar Tabs – Iron Maiden

CD, Sheet music, Poster

Do you like Mother Russia 3? Share with your friends now
Bass TabsTabsTabs v2Tabs v3
I didn't make this

1st Solo

E|--------------------------------------------------------|
B|--------------------------------------------------------|
G|-------------6--7-6-4---4---4-6-6~----------------------|
D|-----2---4------------7---6-----------------------------|
A|-4------------------------------------------------------|
E|--------------------------------------------------------|

E|---------------5----------------------------------------|
B|---------5-7-9---9-7-5-----------/7--6-----/10--9-------|
G|---4-6-7---------------7-6~-------------7----------10---|
D|-7------------------------------------------------------|
A|--------------------------------------------------------|
E|--------------------------------------------------------|

E|--------------------------------------------------------|
B|--------------------------------------------------------|
G|-6--7--6h7p6--------------------------------------------|
D|-------------9--6h7p6h7p6h7-----------------------------|
A|----------------------------9-7h9p7h9-5h7p5h7-4~--------|
E|--------------------------------------------------------|

E|---------------0-9-10-9-7-9-5-0-5-4-2-4-----------------|
B|--------5+----------------------------------------------|
G|-6+-----------------------------------------------------|
D|--------------------------------------------------------|
A|--------------------------------------------------------|
E|--------------------------------------------------------|

E|-12h14p12h14p12----------------------------------------------|
B|----------------13h14p13h14p13-------------------------------|
G|-------------------------------13h14p13h14p13-10h11p10h11p10-|
D|-------------------------------------------------------------|
A|-------------------------------------------------------------|
E|-------------------------------------------------------------|

E|-14h17p14---------------16h19p16----------------------16-17-19-21-22b(24)-|
B|----------14h15p14---------------16h17p16----16-17-19---------------------|
G|-------------------16---------------------18------------------------------|
D|--------------------------------------------------------------------------|
A|--------------------------------------------------------------------------|
E|--------------------------------------------------------------------------|


2nd Solo

E|-11p8---8---8-11b(13)-----11-10-8-----------------------|
B|------8---8-----------------------8-11-11b(13)----------|
G|--------------------------------------------------------|
D|--------------------------------------------------------|
A|--------------------------------------------------------|
E|--------------------------------------------------------|

E|-8-----------------------8------------------------------|
B|---8----8-----------------------------------------------|
G|-----11---10-8----10-8-9---10-8-------------------------|
D|---------------10---------------10----------------------|
A|-----------------------------------10-9-8-6-8-6~--------|
E|--------------------------------------------------------|

E|--------------------------------------------------------------------|
B|---------------------------------------------------------4--6b(8)---|
G|-A.H.---------------------------------------------------------------|
D|-8b(10)--8--6h8p6-5--6--5h6p5-3--5--3--------------3--5-------------|
A|----------------------------------------6--6--3--6------------------|
E|--------------------------------------------------------------------|

E|-8-10-11-11b(13)-10-8-10-11/13-13b(15)-13-11-10-11-10-8-10-8----8--8\-|
B|-------------------------------------------------------------11-------|
G|----------------------------------------------------------------------|
D|----------------------------------------------------------------------| 
A|----------------------------------------------------------------------|
E|----------------------------------------------------------------------|

E|-----A.H.----------A.H.---------------------------------|
B|-8---11---11---8---8---1---4---3---4---3----------------|
G|-------------------------------------------3------------|
D|--------------------------------------------------------|
A|--------------------------------------------------------|
E|--------------------------------------------------------|

E|-------------8---8----8--|
B|-----------8---8---11----|
G|-10b(12)-----------------|
D|-------------------------|
A|-------------------------|
E|-------------------------|

E|------------------------------------11----11-13b(15)----|
B|-11-10-8----8--------------------11----11---------------|
G|---------11---11-10-8----8-10/12------------------------|
D|----------------------10--------------------------------|
A|--------------------------------------------------------|
E|--------------------------------------------------------|


3rd Solo

E|--------------------------------------------------------|
B|-20+-----20+-----15+-----15+-----15+-----15+------------|
G|-19+-----19+-----14+-----14+-----14+-----14+------------|
D|--------------------------------------------------------|
A|--------------------------------------------------------|
E|--------------------------------------------------------|

E|----------14-17-15-14----14-----------------------------|
B|----12-15-------------17----15-17-17b(19)---------------|
G|--------------------------------------------------------|
D|-14-----------------------------------------------------|
A|--------------------------------------------------------|
E|--------------------------------------------------------|

E|---------------------------------------------------------|
B|---------17-20---------17-20---------17-20---------17-20-|
G|-19b(21)-------19b(21)-------19b(21)-------19b(21)-------|
D|---------------------------------------------------------|
A|---------------------------------------------------------|
E|---------------------------------------------------------|

E|---------------------------------------------|-Drums-&-Rhythm-Guitar-|
B|---------17-20---------17-20---------17-20\--|-----------------------|
G|-19b(21)-------19b(21)-------19b(21)---------|-----------------------|
D|---------------------------------------------|-----------------------|
A|---------------------------------------------|-----------------------|
E|---------------------------------------------|-----------------------|

E|---------12-12---------12-12---------12-12---------12-12-|
B|-15b(17)-------15b(17)-------15b(17)-------15b(17)-------|
G|---------------------------------------------------------|
D|---------------------------------------------------------|
A|---------------------------------------------------------|
E|---------------------------------------------------------|

E|--------------------------------------------------------|
B|-15-12--------------------------------------------------|
G|-------14-12--------------------------------------------|
D|-------------14----12-----------------------------------|
A|-------------------------14----12-----------------------|
E|-------------------------------------15----12-----------|

E|----------------------------------14\--|-Drums-&-Rhythm-Guitar-|
B|-------------------------14----13------|-----------------------|
G|----------------14----13----12---------|-----------------------|
D|-------------13----12------------------|-----------------------|
A|----14-13-12---------------------------|-----------------------|
E|-12------------------------------------|-----------------------|

E|-19-15----15-17-19-17-15----15-------15-17-15-14-|
B|-------17----------------19----17-19-------------|
G|-------------------------------------------------|
D|-------------------------------------------------|
A|-------------------------------------------------|
E|-------------------------------------------------|

E|-17-14----14-------14-15-17-15-14----14----------|
B|-------15----15-17----------------17----15-------|
G|-------------------------------------------16----|
D|-------------------------------------------------|
A|-------------------------------------------------|
E|-------------------------------------------------|

E|-15-12----12-13-15-13-12----12-------------|-Drums-&-Rhythm-Guitar-|
B|-------13----------------15----13-15b(17)--|-----------------------|
G|-------------------------------------------|-----------------------|
D|-------------------------------------------|-----------------------|
A|-------------------------------------------|-----------------------|
E|-------------------------------------------|-----------------------|

Notation Legend

---------------------
~ - Vibrato
/ - Slide ---------------------





Comments


Popular Iron Maiden tabs & chords
Genghis Khan Bass Tabs
Only The Good Die Young Bass Tabs
Revelations 2 Bass Tabs
Back In The Village Tabs
Blood Brothers Tabs
Fate's Warning Tabs
Fear Of The Dark 4 Tabs
Pilgrim Intro 1 Tabs
The Clairvoyant 1 Tabs
The Mercenary 1 Tabs


Song lyrics



↑ Back to top | Tablatures and chords are parodies/interpretations of the original songs. You may use it for private study, scholarship, research or language learning purposes only
© 2014 AZChords.com Contact us | Privacy policy | DMCA | Add/correct tabs | Request tabs | Top 50 tabs