>
 >
Look For The Truth

Look For The Truth Bass Tabs

Iron Maiden - Look For The Truth chords, tabs, tablatures, lyrics

Guitar lessons | Add/correct | Request | Top 50 tabs Artists:  A B C D E F G H I J K L M N O P Q R S T U V W X Y Z 0-9

Look For The Truth Bass Tabs – Iron Maiden

CD, Sheet music, Poster

Do you like Look For The Truth? Share with your friends now
Bass TabsBass Tabs v2Bass Tabs v3Tabs
------------7----7-9-10----10-9-5----5-3-2----0-2-3----2-3-5----9-10-7-------
Rhythm | begin on cue 
Guitar |  
enters |


-9----9-11-12----12-11-7----7-5-4----2-4-5----4-5-7----11-12-9---------------
                                             
|-----9----12----7----4----5-----7-----9------|------------------------------
|.----9----12----7----4----5-----7-----9-----.|------------------------------
|.----7----10----5----2----3-----5-----7-----.|---7--7--7--7----7--7--7--7---
|---------------------------------------------|------------------------------
                                Play 4 times       cresc.                  

--9---9-9--12----------------------------9---9---9-9--12---------------------
--9---9-9--12--12-----12----9--9-9---12--9---9---9-9--12--12-----12----9--9-
9             
--7---7-7--10--12-----12----9--9-9---12--7---7---7-7--10--12-----12----9--9-
9                  
---------------10-----10----7--7-7---10-------------------10-----10----7--7-7

-----9--9----9---9-9--12----------------------------9---9---9-9--12----------
-12--9--9----9---9-9--12--12-----12----9--9-9---12--9---9---9-9--12--12---12-
-12--7--7----7---7-7--10--12-----12----9--9-9---12--7---7---7-7--10--12---12-
-10-----------------------10-----10----7--7-7---10-------------------10---10-

--------------9----9-9-9-9-9--------------------------------9-9-9-9-9--------
-9--9-9---12--9----9-9-9-9-9--10-10-10-10-10---9-9--10-10---9-9-9-9-9--10-10-
-9--9-9---12--7----7-7-7-7-7--10-10-10-10-10---9-9--10-10---7-7-7-7-7--10-10-
-7--7-7---10-------------------8--8--8--8--8---7-7---8--8---------------8--8-

-------------------------9-9-9-9-9--------------------------------9-9-9-9-9--
-10-10-10--10-9---7--5---9-9-9-9-9--10-10-10-10-10---9-9--10-10---9-9-9-9-9--
-10-10-10--10-9---7--5---7-7-7-7-7--10-10-10-10-10---9-9--10-10---7-7-7-7-7--
--8--8--8---8-7---5--3---------------8--8--8--8--8---7-7---8--8--------------

-------------------------------9--9-9---------------12-12-12-12-12-----------
-10-10-10-10-10--10-9---7--5---9--9-9--12--10--10---12-12-12-12-12--12-12----
-10-10-10-10-10--10-9---7--5---7--7-7--12--10--10---10-10-10-10-10--12-12----
--8--8--8--8--8---8-7---5--3-----------10---8---8-------------------10-10----

--9---9-9------------------7-7-7-7----9--9-9--12---------------------------9-
--9---9-9--12-10-10---5-5--7-7-7-7----9--9-9--12---12----12----9--9-9--12--9-
--7---7-7--12-10-10---5-5--5-5-5-5----7--7-7--10---12----12----9--9-9--12--7-
-----------10--8--8---3-3--------------------------10----10----7--7-7--10----

---9---9-9--12----------------------------9-----9-9-9-9-9--------------------
---9---9-9--12--12-----12----9--9-9---12--9-----9-9-9-9-9--10-10-10-10-10--9-
---7---7-7--10--12-----12----9--9-9---12--7-----7-7-7-7-7--10-10-10-10-10--9-
----------------10-----10----7--7-7---10--------------------8--8--8--8--8--7-

------------9-9-9-9-9---------------------------------9-9-9-9-9--------------
-9--10-10---9-9-9-9-9--10-10-10-10-10--10-9----7--5---9-9-9-9-9--10-10-10-10-
-9--10-10---7-7-7-7-7--10-10-10-10-10--10-9----7--5---7-7-7-7-7--10-10-10-10-
-7---8--8---------------8--8--8--8--8---8-7----5--3---------------8--8--8--8-

-------------------9-9-9-9-9----------------------------------9---9----------
-10---9-9--10-10---9-9-9-9-9--10-10-10-10-10---10-9---7--5----9---9---12--10-
-10---9-9--10-10---7-7-7-7-7--10-10-10-10-10---10-9---7--5----7---7---12--10-
--8---7-7---8--8---------------8--8--8--8--8----8-7---5--3------------10---8-

------12-12-12-12-12--------------9--9-------------------7-7-7-7------9--9-9-
-10---12-12-12-12-12---12--12-----9--9--12-10-10---5--5--7-7-7-7------9--9-9-
-10---10-10-10-10-10---12--12-----7--7--12-10-10---5--5--5-5-5-5------7--7-7-
--8--------------------10--10-----------10--8--8---3--3----------------------


-12----------------------------9---9--9-9--12--------------7---9-----9-------
-12--12-----12----9--9-9---12--7---9--9-9--12--12-----12---7---9-----9-------
-10--12-----12----9--9-9---12--7---7--7-7--10--12-----12---5---7-----7-------
-----10-----10----7--7-7---10------------------10-----10---------------------

|----------------12----5--5---------------------------|----------------12---5
|.--12---12-12---12----5--5--5--5---10-9----------.--.|--12---12--12---12---5
|.--12---12-12---10----3--3--5--5--------12--10--12--.|--12---12--12---10---3
|---10---10-10---------------3--3---------------------|--10---10--10---------
                                           Play 3 times

--5--------------------------------|
--5--5--5---10--9-------9----------|
--3--5--5----------12------12--10--|
-----3--3--------------------------|
                                   
                                       
                                      | 1. and 3.        | 2. and 4.
|----9--9----12-12----12--12----7--7--|------------------|----->--------->--|
|.---9--9----12-12----12--12----7--7--|-5-4-------------.|-10-10----12--12-.|
|.---7--7----10-10----10--10----5--5--|-----7-5-7-5-----.|-10-10----12--12-.|
|-------------------------------------|-------------7-5--|--8--8----10--10--|
Guitar Solos

-2--2---5--5---5--5-------------------------2--2----5--5---------------------
-2--2---5--5---5--5----5--5---7--7---7--7---2--2----5--5---5--5---7--7---7--7
-0--0---3--3---3--3----5--5---7--7---7--7---0--0----3--3---5--5---7--7---7--7
-----------------------3--3---5--5---5--5------------------3--3---5--5---5--5

-2--2---5--5---5--5-------------------------2--2----5--5---------------------
-2--2---5--5---5--5----5--5---7--7---7--7---2--2----5--5---5--5---7--7---7--7
-0--0---3--3---3--3----5--5---7--7---7--7---0--0----3--3---5--5---7--7---7--7
-----------------------3--3---5--5---5--5------------------3--3---5--5---5--5

--9---9-9--12---7---7------------7----9-----9---9-9--12---7---7----------7--9
--9---9-9--12---7---7---9--9-9---7----9-----9---9-9--12---7---7--9--9-9--7--9
--7---7-7--10---5---5---9--9-9---5----7-----7---7-7--10---5---5--9--9-9--5--7
------------------------7--7-7-----------------------------------7--7-7------

--9---9-9--12---7---7------------7----9-----9---9-9--12---7---7----------7--9
--9---9-9--12---7---7---9--9-9---7----9-----9---9-9--12---7---7--9--9-9--7--9
--7---7-7--10---5---5---9--9-9---5----7-----7---7-7--10---5---5--9--9-9--5--7
------------------------7--7-7-----------------------------------7--7-7------

--9---9-9--12---7---7------------7----9-----9---9-9--12---7---7--------------
--9---9-9--12---7---7---9--9-9---7----9-----9---9-9--12---7---7--9---9--9----
--7---7-7--10---5---5---9--9-9---5----7-----7---7-7--10---5---5--9---9--9----
------------------------7--7-7-----------------------------------7---7--7----
                                                           ritard.
-7----9--||
-7----9--||
-5----7--||
---------||





Comments


Popular Iron Maiden tabs & chords
Caught Somewhere In Time 1 Bass Tabs
Deja Vu Bass Tabs
Invaders Bass Tabs
Age Of Innocence 1 Tabs
Ghost Of The Navigator 1 Tabs
Journeyman 1 Tabs
No More Lies 5 Tabs
Phantom Of The Opera 4 Tabs
The Prophecy Tabs
Transylvania Tabs


Song lyrics



↑ Back to top | Tablatures and chords are parodies/interpretations of the original songs. You may use it for private study, scholarship, research or language learning purposes only
© 2014 AZChords.com Contact us | Privacy policy | DMCA | Add/correct tabs | Request tabs | Top 50 tabs