» » »

Iron Maiden, Longest Day Bass tabs (ver.2)

Artists:  A B C D E F G H I J K L M N O P Q R S T U V W X Y Z # 

Longest Day Bass tabs (ver.2)

Iron Maiden Tabs
Rating:
0/5 (0 votes)
Longest Day lessons Tabs too difficult? Try these video lessons and learn fast
                (Intro)

Tuning:G,D,A,E

G|------------------------|
D|-2-222-222-222-222-222--|guitar intro at 0:05
A|------------------------|
E|------------------------|

In the gloom the gathering storm abates
In the ships gimlet eyes await
The call to arms to hammer at the gates
To blow them wide throw evil to its fate

G|----------------------------|
D|----------------------------|
A|-2-222-222-222-222-222-222--|change of key at 0:41
E|----------------------------|

All summers long the drills to build the machine
To turn men from flesh and blood to steel

G|-----------------------------|
D|-222-222-222-222-222-222-222-|another change of key at 0:58
A|-----------------------------|
E|-----------------------------|

Overlord, your master not your god
The enemy coast dawning grey with scud
These wretched souls puking, shaking fear
To take a bullet for those who sent them here

G|---------------------------------|
D|---------------------------------|another key change at 1:16
A|-222-222-222-222-222-222-222-222-|
E|---------------------------------|

The world's alight, the cliffs erupt in flame
No escape, remorseless shrapnel rains
Drowning men no chance for a warrior's fate
A choking death enter hell's gate

G|------------------------------------------------------|
D|------------------------------------------------------|just figure out wher
A|--7-777-777-77---------------------------5-555-555-55-|the notes go with
E|---------------8-888-888-88-3-333-333-33--------------|the words
Sliding we go, only fear on our side

G|-------------------------------------------------------|
D|-------------------------------------------------------|
A|--7-777-777-77---------------------------5-555-555-55--|
E|---------------8-888-888-88-3-333-333-33---------------|
To the Edge of the wire, and we rush with the tide

G|-------------------------------------------------------|
D|-------------------------------------------------------|
A|--7-777-777-77---------------------------5-555-555-55--|
E|---------------8-888-888-88-3-333-333-33---------------|
Oh the Water is red, WIth the blood of the dead
G|-------------------------------------------------------|
D|-------------------------------------------------------|
A|--7-777-777-77---------------------------5-555-555-55--|
E|---------------8-888-888-88-3-333-333-33---------------|
But Im still alive, Pray to God I survive

Well Like i said thats as far as I got with the tabs because the bass stands out but 
it seems to fade away. i have listened to the song countless times to get the lyrics tho 
^_^

Lyrics:
In the gloom the gathering storm abates
In the ships gimlet eyes await
The call to arms to hammer at the gates
To blow them wide throw evil to its fate

All summers long the drills to build the machine
To turn men from flesh and blood to steel

Overlord, your master not your god
The enemy coast dawning grey with scud
These wretched souls puking, shaking fear
To take a bullet for those who sent them here

The world's alight, the cliffs erupt in flame
No escape, remorseless shrapnel rains
Drowning men no chance for a warrior's fate
A choking death enter hell's gate

Sliding we go, only fear on our side
To the edge of the wire,
and we rush with the tide
Oh the water is red,
with the blood of the dead
But I'm still alive, pray to God I survive

How long on this longest day
'Til we finally make it through
How long on this longest day
'Til we finally make it through

How long on this longest day
'Til we finally make it through
How long on this longest day
'Til we finally make it through

The rising dead, faces bloated torn

They are relieved, the living wait their turn
Your number's up, the bullet's got your name
You still go on, to hell and back again

Valhalla waits, valkyries rise and fall
The warrior tombs, lie open for us all
A ghostly hand reaches through the veil
Blood and sand, we will prevail

Sliding we go, only fear on our side
To the edge of the wire,
and we rush with the tide
Oh the water is red,
with the blood of the dead
But I'm still alive, pray to God I survive

How long on this longest day
'Til we finally make it through
How long on this longest day
'Til we finally make it through

How long on this longest day
'Til we finally make it through
How long on this longest day
'Til we finally make it through

SOLO

How long on this longest day
'Til we finally make it through
How long on this longest day
'Til we finally make it through

How long on this longest day
'Til we finally make it through
How long on this longest day
'Til we finally make it through
            
Submit corrections

comments powered by Disqus
↑ Back to top | Iron Maiden Bass for Longest Day. Lyrics for acoustic guitar and electric guitar. Tablatures and chords are parodies/interpretations of the original songs. You may use it for private study, scholarship, research or language learning purposes only