>
 >
Legacy

Legacy Bass Tabs

Iron Maiden - Legacy chords, tabs, tablatures, lyrics

Guitar lessons | Add/correct | Request | Top 50 tabs Artists:  A B C D E F G H I J K L M N O P Q R S T U V W X Y Z 0-9

Legacy Bass Tabs – Iron Maiden

CD, Sheet music, Poster

Do you like Legacy? Share with your friends now
Bass TabsTabs
----------------------------------------------------------------------------
			     SONG NAME - Band Name
----------------------------------------------------------------------------


Tuning:Standard
                          


G|------7----------7-----------7-----------7------|
D|----7---7------7---7-------7---7-------7---7----|
A|-5----------5-----------5-----------5-----------|X2
E|------------------------------------------------|

G|------7---------(9)----------7-----------9------|
D|----7---7------7---7-------7---7-------7---7----|
A|-5----------5-----------5-----------5-----------|
E|------------------------------------------------|

G|------7----------7-----------7-----------9------|
D|----7---7------7---7-------7---7-------7---7----|
A|-5----------5-----------5-----------5-----------|
E|------------------------------------------------|


G|------7----------7-----------7-----------7------|
D|----7---7------7---7-------7---7-------7---7----|
A|-5----------5-----------5-----------5-----------|X10
E|------------------------------------------------|
                  1:10
G|------7----------7-----------7-----------9------|
D|----7---7------7---7-------7---7-------7---7----|
A|-5----------5-----------5-----------5-----------|X3
E|------------------------------------------------|

G|------7----------7-----------7----------7-------|
D|----7---7------7---7-------7---7--------7-------|
A|-5----------5-----------5---------------5-------|
E|------------------------------------------------|
               1:34
G|--12--10--12--10--12-10--10--9--------------|
D|--------------------------------------------|
A|--------------------------------------------|X2
E|--------------------------------------------|
               1:49 
G|14-14-14-14-14-14-14-14-14-15-15-15-15-14-12-14-|
D|------------------------------------------------|
A|------------------------------------------------|X2
E|------------------------------------------------|

G|12-12-12-12-12-12-12-12-12-14-14-14-14-12-10-10-|
D|------------------------------------------------|
A|------------------------------------------------|
E|------------------------------------------------|

G|14-14-14-14-14-14-14-14-14-15-15-15-15-14-12-12-|
D|------------------------------------------------|
A|------------------------------------------------|X3
E|------------------------------------------------|

G|12-12-12-12-12-12-12-12-12-14-14-14-14-12-10-10-|
D|------------------------------------------------|
A|------------------------------------------------|
E|------------------------------------------------|

G|14-14-14-14-14-14-14-14-14-15-15-15-15-14-12-14-|
D|------------------------------------------------|
A|------------------------------------------------|
E|------------------------------------------------|
                  2:15
G|--12--10--12--10--12-10--10--9--9---------|
D|------------------------------------------|
A|------------------------------------------|X2
E|------------------------------------------|
                  2:29
G|14-14-14-14-14-14-14-14-14-15-15-15-15-14-12-14-|
D|------------------------------------------------|
A|------------------------------------------------|X2
E|------------------------------------------------|
                 2:36
G|12-12-12-12-12-12-12-12-12-14-14-14-14-12-10-10-|
D|------------------------------------------------|
A|------------------------------------------------|
E|------------------------------------------------|

G|14-14-14-14-14-14-14-14-14-15-15-15-15-14-12-12-|
D|------------------------------------------------|
A|------------------------------------------------|
E|------------------------------------------------| 
                      2:42
G|12-12-12-12-12-12-12-12-12-12-12-12-12-12-12-12-12/10-10-10-10-10-10-|
D|---------------------------------------------------------------------|
A|---------------------------------------------------------------------|X2
E|---------------------------------------------------------------------|
                      2:55
G|--12--10--12--10--12-10--10-----(14)--------|
D|-----------------------------14-------------|
A|--------------------------------------------|X2
E|--------------------------------------------|
                      3:10
G|--------------------------------------------|
D|--------------------------------------------|
A|-5-555-555-555-555-558--887h8p7-------------|X6
E|-------------------------------8------------|
                      3:42
G|-------------------------------7------------|
D|-----------------------------57---750-------|
A|-5-555-555-555-555-555-555--5---------------|
E|--------------------------------------------|

G|------------------------7-------------------|
D|----------------------57---750--------------|
A|------------5-555-555-----------------------|X4
E|--------------------------------------------|
                      3:59
G|--------------------------------------------|
D|-------------5-555-555-555555---------------|
A|--------------------------------------------|
E|--------------------------------------------|
                      4:02 
G|-------------7-777-777-777777---------------|
D|--------------------------------------------|
A|--------------------------------------------|
E|--------------------------------------------|
                      4:04
G|--------------------------------------------|
D|--------------------------------------------|
A|-5-555-555-555-555-558--887h8p7-------------|X4
E|-------------------------------8------------|
                      4:26              
G|------------------------7-------------------|
D|----------------------57---750--------------|
A|------------5-555-555-----------------------|X4
E|--------------------------------------------|
                     4:42
 G|-------------------------------------------|
D|-------------5-555-555-555555---------------|
A|--------------------------------------------|
E|--------------------------------------------|
                     4:45
G|-------------7-777-777-777777---------------|
D|--------------------------------------------|
A|--------------------------------------------|
E|--------------------------------------------|
                    Chorus
                     4:47
G|----------------------------------------------|
D|----------------555----5-7-5------------------|
A|-555-0-5-7-----------8-------8-7-5------------|X4
E|------------8---------------------------------|
                     5:11 
G|--12--10--12--10--12-10--10--9--14--------|
D|------------------------------------------|
A|------------------------------------------|X2
E|------------------------------------------|
                    5:35
G|--------------------------------------------------------|
D|--------------------------------------------------------|
A|-5-7-8-10-8-10-12-10-8-10-8-7-5-7-8-10-8-10-12-10-8-10--|
E|--------------------------------------------------------|

G|----------------------------------------------------|
D|------------------------------8-7-5-7-5-3-5-3-2-3---|
5|-5-7-8-10-8-10-12-10-8-10-8-7-----------------------|X2
E|----------------------------------------------------|
                       5:49
G|---------------------------------------------------------|
D|---------------------------------------------------------|
A|--7-7---3-3---5-5---------7-7---3-3---5-5----------------|X4
E|--------------------5-5-----------------------3-3-3-2-0--|
                      6:16
G|--------------------------------------------------------------|
D|--------------------------------------------------------------|
A|-7-9-10-12-10-12-14-12-10-12-10-9-7-9-10-12-10-12-14-12-10-12-|
E|--------------------------------------------------------------|

G|---------------------------------------------------------|
D|-----------------------------------10-8-7-8-7-5-7-5-3-5--|
5|-7-9-10-12-10-12-14-12-10-12-10-9------------------------|X2
E|---------------------------------------------------------|
                       6:29
G|------------------------------------------------|
D|------------------------------------------------|
A|-7-7777777---3-3333333---0-0000000--------------|
E|-------------------------------------1-1111111--|X4
                       6:55
G|------------------------------------------------|
D|-------------------------------------5-555553---|
A|-7-7777777---3-3333333---5-5555555-----------5--|X4
E|------------------------------------------------|
                     7:21

G|------------------------------------------------|
D|------------------------------------------------|
A|-7-7777777---3-3333333---0-0000000--------------|
E|-------------------------------------1-1111111--|X2
                      7:34
G|------------------------------------------------|
D|-------------------------------------5-555553---|
A|-7-7777777---3-3333333---5-5555555-----------5--|X4
E|------------------------------------------------|
                      7:59
G|------------------------------------------------|
D|------------------------------------------------|
A|-7-7777777---3-3333333---0-0000000--------------|
E|-------------------------------------1-1111111--|X4
                      8:25
G|--------------------------------------------------------|
D|--------------------------------------------------------|
A|-5-7-8-10-8-10-12-10-8-10-8-7-5-7-8-10-8-10-12-10-8-10--|
E|--------------------------------------------------------|

G|----------------------------------------------------|
D|------------------------------8-7-5-7-5-3-5-3-2-3---|
5|-5-7-8-10-8-10-12-10-8-10-8-7-----------------------|
E|----------------------------------------------------|

G|--------------------------------------------------------|
D|--------------------------------------------------------|
A|-5-7-8-10-8-10-12-10-8-10-8-7-5-7-8-10-8-10-12-10-8-10--|
E|--------------------------------------------------------|

G|--------------------------------------------------------|
D|------------------------------8-7-5-7-5-3-5-3-2-3-2-----|
5|-5-7-8-10-8-10-12-10-8-10-8-7-----------------------3-5-|
E|--------------------------------------------------------|
                      8:50
G|--12--10--12--10--12-10--10--9--------------|
D|--------------------------------------------|
A|--------------------------------------------|
E|--------------------------------------------|

G|--12--10--12--10--12-10--10--9-----7--------|
D|-----------------------------------7--------|
A|-----------------------------------5--------|
E|--------------------------------------------|





Comments


Popular Iron Maiden tabs & chords
Burning Ambition Bass Tabs
Como Estais Amigos Bass Tabs
2 Am 3 Tabs
Aces High 3 Tabs
Because Ive Got The Fire Tabs
Killers 5 Tabs
Lord Of The Flies Live Tabs
Only The Good Die Young Tabs
Prodigal Son 2 Tabs
Fear Of The Dark Ukulele


Song lyrics



↑ Back to top | Tablatures and chords are parodies/interpretations of the original songs. You may use it for private study, scholarship, research or language learning purposes only
© 2014 AZChords.com Contact us | Privacy policy | DMCA | Add/correct tabs | Request tabs | Top 50 tabs