>
 >
Legacy

Legacy Guitar Tabs

Iron Maiden - Legacy chords, tabs, tablatures, lyrics

Guitar lessons | Add/correct | Request | Top 50 tabs Artists:  A B C D E F G H I J K L M N O P Q R S T U V W X Y Z 0-9

Legacy Guitar Tabs – Iron Maiden

CD, Sheet music, Poster

Do you like Legacy? Share with your friends now
Bass TabsTabs
The Legacy by Iron Maiden (Gers and Harris)

Amazing song. Hear it very well before you play it.


 Riff1
|----------------------------------------------------------------------------------------------|
|-15-----15---13-----13---11-----11---10-----10---8------8----6------6----8------8----5------5-|
|--0------0----0------0----0------0----0------0---0------0----0------0----0------0----0------0-|
|----------------------------------------------------------------------------------------------|
|-17---17-----15---15-----13---13-----12---12-----10---10-----8-----8-----10---10-----7----7---|
|----0-----------0-----------0-----------0-----------0-----------0-----------0-----------0-----|


 Riff2
|----------------------------------------------|
|-5------5----6------6----5------5----1------1-|
|-0------0----0------0----0------0----0------0-|
|----------------------------------------------|
|-7----7------8----8------7----7------3----3---|
|----0-----------0-----------0-----------0-----|

Riff2 alternative ending
|---------0-|
|-------5---|
|-----7-----|
|---7-------|
|-5---------|
|-----------|


 Riff3
|--0----0----0---0-----0----0--0---0--(0)-|
|--0----0----0---0-----0----0--0---5--(5)-|
|-12---10---12---10---12---10-10---7--(7)-|
|-12---12---12---12---12---12-12---7--(7)-|
|-10---10---10---10---10---10-10---0--(0)-|
|-----------------------------------------|


 Riff4
|--------------------------------------------------|
|-10-10-10--11-11-11--10-10-10--11-11-11-11-10-8-8-|
|--9--9--9---9--9--9---9--9--9---9--9--9--9--9-9-9-|
|--------------------------------------------------|
|--------------------------------------------------|
|--------------------------------------------------|


 Riff5
|-------------------------------------------------|
|--8--8--8--10-10-10---8--8--8--10-10-10-10-8-6-6-|
|--7--7--7---7--7--7---7--7--7---7--7--7--7-7-7-7-|
|-------------------------------------------------|
|-------------------------------------------------|
|-------------------------------------------------|


 Riff6
|---------------------------------------------------------------------------------|
|--8--8---8--8--8---8--8--8---8--8--8---8--8--8--8\6--6--6--6---6--6--6---6--6--6-|
|--7--7---7--7--7---7--7--7---7--7--7---7--7--7--7\5--5--5--5---5--5--5---5--5--5-|
|---------------------------------------------------------------------------------|
|---------------------------------------------------------------------------------|
|---------------------------------------------------------------------------------|


 Riff7
|------------------------------------------------|
|------------------------------------------------|
|------------------------------------------------|
|-7-7-7--7-7--10--5--7--7-7-7--7-7--3--2-3-2-----|
|-5-5-5--5-5---5--5--5--5-5-5--5-5--3--------3---|
|------------------------------------------------|
--..........------------..........-----.......---|


 Riff8
|----0---0-0-0--0-0--0---0-0-0---0--0----0----0--0--0----0--0----0----0--0--0-|
|----0---0-0-0--0-0--0---0-0-0---0--0----0----0--0--0----0--0----0----0--0--0-|
|----7---7-7-7--9-9--9---9-9-9--10-10---10---10-10-10---12-12---12---12-12-12-|
|----7---7-7-7--9-9--9---9-9-9--10-10---10---10-10-10---12-12---12---12-12-12-|
|----5---5-5-5--7-7--7---7-7-7---8--8----8----8--8--8---10-10---10---10-10-10-|
|-0--0---0-0-0--0-0--9---0-0-0---0--0----0----0--0--0----0--0----0----0--0--0-|


 Riff9
|-------------------------------------------------------|
|-------------------------------------------------------|
|-------------------------------------------------------|
|--12-12-12---10--12/14--12-----5-5-5---4-5-7-5-4-------|
|-------------------------------------------------7-5---|
|-------------------------------------------------------|
----------------------------------------............----|


 Riff10
|---------------------------------------------------------------------------------------------|
|---------------------------------------------------------------------------------------------|
|-------------2------------------------2--------------------2------------3-2---2--------------|
|---2-3-5-3-5---5-3-5-3-2----2-3-5-3-5---5-3-5----2-3-5-3-5---5-3-5-3-2------5---5-3-5-3-2-3--|
|-5------------------------5--------------------5---------------------------------------------|
|---------------------------------------------------------------------------------------------|
--............-.........-..............-.....-..............-.........-..-.................---|

Riff10 w/ alternative ending
|---------------------------------------------------------------------------------------------------|
|---------------------------------------------------------------------------------------------------|
|-------------2------------------------2--------------------2------------3-2---2--------------------|
|---2-3-5-3-5---5-3-5-3-2----2-3-5-3-5---5-3-5----2-3-5-3-5---5-3-5-3-2------5---5-3-5-3-2-3-2------|
|-5------------------------5--------------------5----------------------------------------------3-5--|
|---------------------------------------------------------------------------------------------------|
--............-.........-..............-.....-..............-.........---SLOW DOWN HERE-------------|


 Riff11
|-----------------------------------------------------|
|-----------------------------------------------------|
|--------9-9----------5-5----------7-7----------------|
|-9-9-9--9-9---5-5-5--5-5---7-7-7--7-7----------7-7---|
|-7-7-7--7-7---3-3-3--3-3---5-5-5--5-5---7-7-7--7-7---|
|----------------------------------------5-5-5--5-5---|
--.....--------.....--------.....--------.....--------|


 Riff12
|---------------------------------------------------------------------------------------------|
|---------------------------------------------------------------------------------------------|
|-------------4------------------------4--------------------4------------5-4---4--------------|
|---4-5-7-5-7---7-5-7-5-4----4-5-7-5-7---7-5-7----4-5-7-5-7---7-5-7-5-4------7---7-5-7-5-4-5--|
|-7------------------------7--------------------7---------------------------------------------|
|---------------------------------------------------------------------------------------------|
--............-.........-..............-.....-..............-.........-..-.................---|


 Riff13
|------------------------------------------------------------------------------------------------------------------------------------|
|-10h12p10----10-----8h10p8----8---10h12p10----10-----8h10p8----8---10h12p10----10-----8h10p8----8---10h12p10----10-----8h10p8-------|
|-----------12--12-----------11--------------12--12-----------11--------------12--12-----------11--------------12--12-----------11-7-|
|------------------------------------------------------------------------------------------------------------------------------------|
|------------------------------------------------------------------------------------------------------------------------------------|
|------------------------------------------------------------------------------------------------------------------------------------|


 Riff14
|---------------------------------|
|---------------------------------|
|-9------5------7------12---11--7-|
|-9------5------7------12---11--7-|
|-7------3------5------10----9--5-|
|---------------------------------|


 Riff15
|---------------------------------------------------------------------------|
|---------------------------------------------------------------------------|
|-9---------9----------5---------5----------7---------7----------12---11--7-|
|-9--9-9-9--9--9-9-9---5--5-5-5--5--5-5-5---7--7-7-7--7--7-7-7---12---11--7-|
|-7--7-7-7--7--7-7-7---3--3-3-3--3--3-3-3---5--5-5-5--5--5-5-5---10----9--5-|
|---------------------------------------------------------------------------|


 Riff16
|----------------------------------------|
|-12-12--13--15-15--13-12-------10-12-10-|
|-------------------------12-------------|
|----------------------------------------|
|----------------------------------------|
|----------------------------------------|


SOLO

|-------------------------------------------------15b--15-12------------------------------------------------------------|
|--------------------15b--15-13-12-13-12---------------------15-13-12-13-15b-15b-15b-15r-12-15-12-----------------------|
|---11p0-9p0-12-14b----------------------14-12----------------------------------------------------14-12--7h9p7h9p7h9ph7-|
|-9--------------------------------------------14-----------------------------------------------------------------------|
|-----------------------------------------------------------------------------------------------------------------------|
|-----------------------------------------------------------------------------------------------------------------------|

|-17b--17-15-14-15-14----14-----------14-15-17p15p14-15-14----14-----------------------14-15--14-----------------|
|---------------------17----17-15--17----------------------15----17-15--17-15-17-*17*------------17-15-12-15-15b-|
|----------------------------------------------------------------------------------------------------------------|
|----------------------------------------------------------------------------------------------------------------|
|----------------------------------------------------------------------------------------------------------------|
|----------------------------------------------------------------------------------------------------------------|

|----12h15p12----------12h15p12----------12h15p12----------12h17p12----------|
|-15----------15-12-15----------15-12-15----------15-12-15----------15-12-15-|
|----------------------------------------------------------------------------|
|----------------------------------------------------------------------------|
|----------------------------------------------------------------------------|
|----------------------------------------------------------------------------|

|-12h15p12----------12h17p12----------12h15p12----------------20bv--20-19-17--------------------------------|
|----------15-12-15----------15-12-15----------15-12-15--15b-----------------20-19-17-19-20-20b-20b-20b-20b-|
|-----------------------------------------------------------------------------------------------------------|
|-----------------------------------------------------------------------------------------------------------|
|-----------------------------------------------------------------------------------------------------------|
|-----------------------------------------------------------------------------------------------------------|


Song Order

Riff 1
Riff 2 x2
Riff 1 x6
Riff 2 x2 (alternative ending on 2nd)
Riff 3 x2

Riff 4 x2
Riff 5
Riff 4 x3
Riff 5
Riff 4
Riff 3 x2
Riff 4 x2
Riff 5
Riff 4
Riff 6 x2
Riff 3 x2

Riff 7 x6
Riff 8 x2
Riff 7 x4
Riff 8 x2
Riff 9 x4
Riff 3 x2

Riff 10 x3
Riff 11 x8 - SOLO enters on 3rd

Riff 12 x2

Riff 13 x4
Riff 14 x2
Riff 15 x2

Riff 13 x2 and Riff 16 x2 at the same time
Riff 14 x4

Riff 13 x4 and Riff 16 x4 at the same time

Riff 10
Riff 10 w/ alternative ending


Riff 3 x2
Riff 3 alternative ending





Comments


Popular Iron Maiden tabs & chords
Brave New World Bass Tabs
The Number Of The Beast Bass Tabs
Can I Play With Madness 1 Chords
Children Of The Damned Chords
Blood Brothers 2 Tabs
Doctor Doctor Tabs
Drifter Tabs
Flight Of Icarus 2 Tabs
Genghis Khan 1 Tabs
Lord Of Light 2 Tabs


Song lyrics



↑ Back to top | Tablatures and chords are parodies/interpretations of the original songs. You may use it for private study, scholarship, research or language learning purposes only
© 2014 AZChords.com Contact us | Privacy policy | DMCA | Add/correct tabs | Request tabs | Top 50 tabs