» » »

Iron Maiden, Ides Of March Tabs

Artists:  A B C D E F G H I J K L M N O P Q R S T U V W X Y Z # 

Ides Of March Tabs

(ver. 1)
Iron Maiden Tabs
 Rating:
4/5 (4 votes)
    Ides Of March lessons Tabs too difficult? Try these video lessons and learn fast

WWW.AZCHORDS.COM | Iron Maiden Tabs - Ides Of March Tabs (ver. 1)


                foamyan*ldouche

|------------------------------------------------------------------
|------------------------------------------------------------------
|------------------------------------------------------------------
|--9-------11----12--------2---4---5--------4-----2--------12-11-9-
|--7--------9----10--------0---2---3--------2-----0--------10--9-7-
|------------------------------------------------------------------

|------------------------------------------------------------------
|------------------------------------------------------------------
|------------------------------------------------------------------
|--7--------9----11--------12--11--9--------7-----9--------7-------
|--5--------7-----9--------10---9--7--------5-----7--------5-------
|------------------------------------------------------------------

Fig. 2
[gtr. 1]
|-------------------------------------------------------------------
|--------------------------13--15--15b(17)--15(17)-13------12-------
|(11)b12---14----14b(16)--------------------------------------14-12-
|-------------------------------------------------------------------
|-------------------------------------------------------------------
|-------------------------------------------------------------------

[gtr. 2]
|-------------------------------------------------------------------
|-------------------------------------------------------------------
|-------------------------------------------------------------------
|(12)b14---11----11b(12)---14--16--16b(17)--16(17)-14------12-11----
|----------------------------------------------------------------14-
|-------------------------------------------------------------------


[gtr. 1]
|-------------------------------------------------------------------
|----------------------------------------------------------15b(17)--
|--11------12----12b(14)---(16)b14-12--------11----12---------------
|-------------------------------------------------------------------
|-------------------------------------------------------------------
|-------------------------------------------------------------------

[gtr. 2]
|-------------------------------------------------------------------
|-------------------------------------------------------------------
|--------------------------(12)b11----------------------------------
|--12------14----14b(16)-----------14--------12----14---------------
|-------------------------------------------------------------------
|-------------------------------------------------------------------


Fig. 3
[space compressed]
|----------------------------------------------15b17--15---12--------12--------------
|--15b(17)--15p12---------------------------12----------------15b17------15--12------
|-------------------15p14p12--14b16--12------------------------------------------14b-
|------------------------------------------------------------------------------------
|------------------------------------------------------------------------------------
|------------------------------------------------------------------------------------

|------12----------------------------------------------------------------------------
|--12------15--12--------------------------------------------------------------------
|------------------15--14--12------12--14--12------12--14--12------12--14--12--------
|------------------------------14--------------14--------------14--------------14----
|------------------------------------------------------------------------------------
|------------------------------------------------------------------------------------

|------------------------------------------|--15--14-------------------15--14--------
|------------------------------------------|----------15------17b19------------15----
|--12--------------12----------------------|--------------14-----------------------14
|------14--12------------------------------|-----------------------------------------
|--------------14------14--12--10----------|-----------------------------------------
|------------------------------------------|-----------------------------------------

|--17b19--17----------12------------12-12-12-15-12----12-----------------------------
|----------------15b-----15-12-15b-----------------15----15-12-15-12-----------------
|--------------------------------------------------------------------15-14-12----12--
|-----------------------------------------------------------------------------14-----
|------------------------------------------------------------------------------------
|------------------------------------------------------------------------------------

|--------------------------------------------------
|--------------------------------------------------
|--14----12----------------------------------------
|-------------14---12------------------------------
|-----------------------14---13---12---------------
|--------------------------------------15---12-----


Fig. 4
|------------------------------------------------------------------------------------
|-----12-15-12----12-15-12----12-15-12----12-15-12----12-15-12----12-15----------15--
|--14b---------14b---------14b---------14b---------14b---------14b----------/16------
|------------------------------------------------------------------------------------
|------------------------------------------------------------------------------------
|------------------------------------------------------------------------------------

|------------------------------------------------------------------------------------
|--17b(20)----------------------17b(20)------------15---17---15h17-15h17-14h15-14h15-
|------------------------------------------------------------------------------------
|------------------------------------------------------------------------------------
|------------------------------------------------------------------------------------
|------------------------------------------------------------------------------------

|------------------------------------------------------------------------------------
|------------------------------------------------------------------------------------
|--16p14p12---14p12-14p12-14h16p14p12-14p12-14p12p11-12p11---------------------------
|----------------------------------------------------------14-------------12---14----
|---------------------------------------------------------------12h13h14-------------
|------------------------------------------------------------------------------------

|-------------------------------------------------------------------------12---15b---
|------------------------------------------------------------------------------------
|--12--------------------------------------12----------------------------------------
|-------14---12---14-------------12---14--------14-----------------------------------
|----------------------12h13h14------------------------------------------------------
|------------------------------------------------------------------------------------

|--(17)-------------------------------15b(17)-----15b(17)------(15)------12----------
|------------------------------------------------------------------------------------
|------------------------------------------------------------------------------------
|------------------------------------------------------------------------------------
|------------------------------------------------------------------------------------
|------------------------------------------------------------------------------------

|--17b(19)---17b(19)---17b(19)---15---14---15---14--------14-------------------------
|----------------------------------------------------17--------17----15----17--------
|------------------------------------------------------------------------------------
|------------------------------------------------------------------------------------
|------------------------------------------------------------------------------------
|------------------------------------------------------------------------------------
            
Submit corrections

↑ Back to top | Iron Maiden Tabs for Ides Of March. Lyrics for acoustic guitar and electric guitar. Tablatures and chords are parodies/interpretations of the original songs. You may use it for private study, scholarship, research or language learning purposes only