» » »

Iron Maiden, Holy Smoke Bass tabs (ver.1)

Artists:  A B C D E F G H I J K L M N O P Q R S T U V W X Y Z # 

Holy Smoke Bass tabs (ver.1)

Iron Maiden Tabs
Rating:
0/5 (0 votes)
Holy Smoke lessons Tabs too difficult? Try these video lessons and learn fast
                Intro Part 1
G-----------------------|
D-----------------------|
A--7--------5--------7--|
E------7--------5-------|

Intro Part 2
G--------------------------------|
D--------------------------------|
A--7---7-7-7-7-7-7-7-7-7-7-7-7---|
E--------------------------------|

G--------------------------------|
D--------------------------------|
A--------------------------------|
E--7---7-7-7-7-7-7-7-7-7-7-7-7---|

G----------------------------|
D----------------------------|
A—5--5-5-5-5-5---------------|
E--------------5--5-5-5-5-5--|

G--------------------------------|
D--------------------------------|
A--7---7-7-7-7-7-7-7-7-7-7-7-7---|
E--------------------------------|

Verse
G------------------------------------------|
D------------------------------------------|
A--7-7-7-7-7-5-5-5-5-5---------------------| x4
E----------------------3-3-3-3-3-5-5-5-5-5-|

Chorus
G------------------------------------------|
D------------------------------------------|
A--7-7-7-7-7-----------5-5-5-5-5-----------|2X
E------------3-3-3-3-3-----------5-5-5-5-5-|

Intro part 2
Verse
Chorus
Intro part 2
Intro part 1
Solo 1 play Verse
Solo 2 play chorus
Verse
Chorus
Intro part 2
            

comments powered by Disqus
↑ Back to top | Iron Maiden Bass for Holy Smoke. Lyrics for acoustic guitar and electric guitar. Tablatures and chords are parodies/interpretations of the original songs. You may use it for private study, scholarship, research or language learning purposes only