>
 >
Ghost Of The Navigator Intro

Ghost Of The Navigator Intro Guitar Tabs

Iron Maiden - Ghost Of The Navigator Intro chords, tabs, tablatures, lyrics

Guitar lessons | Add/correct | Request | Top 50 tabs Artists:  A B C D E F G H I J K L M N O P Q R S T U V W X Y Z 0-9

Ghost Of The Navigator Intro Guitar Tabs – Iron Maiden

CD, Sheet music, Poster

Do you like Ghost Of The Navigator Intro? Share with your friends now
Tabs
Iron maiden  ghost of the navigator ( brave new world )


E-----------------------------------------------------------------------------------
B-----------------------------------------------------------------------------------
G--------14 12--10 9--10--------------------14--12--10--9--10--9--------
D----12------------------------10------------12----------------------------------
A-----------------------------------------------------------------------------------
E-----------------------------------------------------------------------------------


E ----------------------------------------------------------------------------------
B ----------------------------------------------------------------------------------
G --------12--10--9--10----------10--9--7--9----------------------------------
D ----10--------------------10-/8----------------8- -----------------------------
A ----------------------------------------------------------------------------------
E -----------------------------------------------------------------------------------

                               
E-----------------------------------------------------------------------------------
B-----------------------------------------------------------------------------------
G--------14 12--10 9--10--------------------14--12--10--9--10--9--------
D----12------------------------10------------12----------------------------------
A-----------------------------------------------------------------------------------
E-----------------------------------------------------------------------------------


E ------------------------------------------------------------------------------------
B ------------------------------------------------------------------------------------
G --------12--10--9--10----------10--9--7--9---------10--9--7--5--3--3--5-7-
D ----10--------------------10-/8----------------8- 8------------------------------
A ------------------------------------------------------------------------------------
E -------------------------------------------------------------------------------------

E -------------------------------------------------------------------------------------
B -------------------------------------------------------------------------------------
G --9---10---12---------------------------------------------------------------------
D -------------------------------------------------------------------------------------
A -------------------------------------------------------------------------------------
E -------------------------------------------------------------------------------------





Comments


Popular Iron Maiden tabs & chords
Childhoods End Bass Tabs
Face In The Sand Bass Tabs
Age Of Innocence Tabs
El Dorado 4 Tabs
Fear Of The Dark Tabs
Fear Of The Dark 8 Tabs
Ides Of March 3 Tabs
Sanctuary Tabs
Seventh Son Of A Seventh Son 1 Tabs
Virus 1 Tabs


Song lyrics



↑ Back to top | Tablatures and chords are parodies/interpretations of the original songs. You may use it for private study, scholarship, research or language learning purposes only
© 2014 AZChords.com Contact us | Privacy policy | DMCA | Add/correct tabs | Request tabs | Top 50 tabs