>
 >
Ghost Of The Navigator 3

Ghost Of The Navigator 3 Bass Tabs

Iron Maiden - Ghost Of The Navigator 3 chords, tabs, tablatures, lyrics

Guitar lessons | Add/correct | Request | Top 50 tabs Artists:  A B C D E F G H I J K L M N O P Q R S T U V W X Y Z 0-9

Ghost Of The Navigator 3 Bass Tabs – Iron Maiden

CD, Sheet music, Poster

Do you like Ghost Of The Navigator 3? Share with your friends now
Bass TabsBass Tabs v2Bass Tabs v3TabsTabs v2Tabs v3Tabs v4
Tune:EADG

The rhythm of the bass often change...
but this song is fantastic to play!!
I think it's correct...so...try it!
if it's wrong...I'm here for any corrections!!
                                ENJOY!!!please rate...
                                    STAY SICK!!!

              intro

G|-------------------------------|
D|-------------------------------|
A|--5_----X3_----X5_----X3_------|
E|-------------------------------|

G|---------------------------------|
D|---------------------------------|
A|--1_----X1_----X3X5_----X3_------|
E|---------------------------------|

G|-------------------------------------------|
D|-------------------------------------------|
A|--5-5-5-550-1-1-1-110-3-3-3-330-5-5-5-550--|
E|-------------------------------------------|    X2

G|-----|
D|-----|    repeat this note
A|--5--|    following the drum
E|-----|    until...

-------------------------------------------------------------

              intro/verse:(0:53)

G|----------------------------|
D|----------------------------|
A|--5X-------------5X---------|
E|-------0X---0X-----0X0X-0X--|
       
G|----------------------------|
D|----------------------------|
A|--5X--------5X--------------|
E|-------0X--------0X0X0X-0X--|

                                          X3

                pre-chorus:(1:35.5)

G|---------------------------------------------------|
D|---------------------------------------------------|
A|--0-0-0-0-0-0-0-0-3-3-3-3-3-3-3-3-2-2-2-2-2-2-2-2--|
E|---------------------------------------------------|

G|-------------------|
D|--0-0-0------------|
A|--------3-3-3-2-2--|
E|-------------------|

G|---------------------------------------------------|
D|---------------------------------------------------|
A|--0-0-0-0-0-0-0-0-3-3-3-3-3-3-3-3-2-2-2-2-2-2-2-2--|
E|---------------------------------------------------|

G|-------------------|
D|--0-0-0-2-2-2-3-3--|
A|-------------------|
E|-------------------|

G|---------------------------------------------------|
D|---------------------------------------------------|
A|--0-0-0-0-0-0-0-0-3-3-3-3-3-3-3-3-2-2-2-2-2-2-2-2--|
E|---------------------------------------------------|

G|-------------------|
D|--0-0-0------------|
A|--------3-3-3-2-2--|
E|-------------------|

G|---------------------------------------------------|
D|---------------------------------------------------|
A|--0-0-0-0-0-0-0-0-3-3-3-3-3-3-3-3-2-2-2-2-2-2-2-2--|
E|---------------------------------------------------|

G|-------------------|
D|--0-0-0------------|
A|--------3-3-3-2-2--|
E|-------------------|

--------------------------------------------------------------

                     chorus 1:(2:00)

G|-----------------|------------------|
D|--2--/5----------|--2--/5-----------|
A|---------3--4----|---------3--0X2X--|
E|-----------------|------------------|         X2

--------------------------------------------------------------

                     chorus 2:(2:18)

G|------------------------------------|
D|------------------------------------|
A|--5X5X5---3X3X3---5X5X5---3X3X3-----|
E|------------------------------------|

G|------------------------------------|
D|------------------------------------|
A|--1X1X1---1X1X1---5X5X5---3X3X3-----|
E|------------------------------------|

                                                X2

--------------------------------------------------------------

                      verse:(2:51)

G|----------------------------|
D|----------------------------|
A|--5X-------------5X---------|
E|-------0X---0X-----0X0X-0X--|
       
G|----------------------------|
D|----------------------------|
A|--5X--------5X--------------|
E|-------0X--------0X0X0X-0X--|

                                          X2

                pre-chorus:(3:20)

G|---------------------------------------------------|
D|---------------------------------------------------|
A|--0-0-0-0-0-0-0-0-3-3-3-3-3-3-3-3-2-2-2-2-2-2-2-2--|
E|---------------------------------------------------|

G|-------------------|
D|--0-0-0------------|
A|--------3-3-3-2-2--|
E|-------------------|

G|---------------------------------------------------|
D|---------------------------------------------------|
A|--0-0-0-0-0-0-0-0-3-3-3-3-3-3-3-3-2-2-2-2-2-2-2-2--|
E|---------------------------------------------------|

G|-------------------|
D|--0-0-0-2-2-2-3-3--|
A|-------------------|
E|-------------------|

G|---------------------------------------------------|
D|---------------------------------------------------|
A|--0-0-0-0-0-0-0-0-3-3-3-3-3-3-3-3-2-2-2-2-2-2-2-2--|
E|---------------------------------------------------|

G|-------------------|
D|--0-0-0------------|
A|--------3-3-3-2-2--|
E|-------------------|

G|---------------------------------------------------|
D|---------------------------------------------------|
A|--0-0-0-0-0-0-0-0-3-3-3-3-3-3-3-3-2-2-2-2-2-2-2-2--|
E|---------------------------------------------------|

G|-------------------|
D|--0-0-0------------|
A|--------3-3-3-2-2--|
E|-------------------|

--------------------------------------------------------------

                     chorus 1:(3:44)

G|-----------------|------------------|
D|--2--/5----------|--2--/5-----------|
A|---------3--4----|---------3--0X2X--|
E|-----------------|------------------|         X2

--------------------------------------------------------------

                     chorus 2:(4:02)

G|------------------------------------|
D|------------------------------------|
A|--5X5X5---3X3X3---5X5X5---3X3X3-----|
E|------------------------------------|

G|------------------------------------|
D|------------------------------------|
A|--1X1X1---1X1X1---5X5X5---3X3X3-----|
E|------------------------------------|

                                                X2

                     bridge:(4:35.5)
                     into the guitar solo...

G|----------------------------|
D|----------------------------|
A|--5X-------------5X---------|
E|-------0X---0X-----0X0X-0X--|
       
G|----------------------------|
D|----------------------------|
A|--5X--------5X--------------|
E|-------0X--------0X0X0X-0X--|

                                              X2

                     interlude:(5:04)

G|--------------------------------|
D|--------------------------------|
A|--7-777777-777777-777777-3X-5X--|
E|--------------------------------|    X2

G|--------------------------------|
D|--------------------------------|
A|--5-555555-555555-555555-1X-3X--|
E|--------------------------------|    X2

G|--------------------------------|
D|--------------------------------|
A|--9-999999-999999-999999-5X-7X--|
E|--------------------------------|    X2

G|--------------------------------|
D|--------------------------------|
A|--7-777777-777777-777777-3X-5X--|
E|--------------------------------|

G|----------------------------------|
D|----------------------------------|
A|--7-777777-777777-777777-3X--5X---|
E|----------------------------------|

--------------------------------------------------------------

                      chorus 1:(5:40)

G|-----------------|------------------|
D|--2--/5----------|--2--/5-----------|
A|---------3--4----|---------3--0X2X--|
E|-----------------|------------------|         X2

--------------------------------------------------------------

                     chorus 2:(4:02)

G|------------------------------------|
D|------------------------------------|
A|--5X5X5---3X3X3---5X5X5---3X3X3-----|
E|------------------------------------|

G|------------------------------------|
D|------------------------------------|
A|--1X1X1---1X1X1---5X5X5---3X3X3-----|
E|------------------------------------|

                                                X2

                      outro:(6:31)

G|-------------------------|
D|--0--7--5--3--2--3X--0_--|
A|-------------------------|
E|-------------------------|

                                     END

_=vibrato
X=mute note





Comments


Popular Iron Maiden tabs & chords
Can I Play With Madness 3 Bass Tabs
The Wickerman Bass Tabs
Doctor Doctor Chords
Fear Of The Dark 1 Chords
Blood Brothers 2 Tabs
Blood Brothers 8 Tabs
Bring Your Daughter To The Slaughter Tabs
Charlotte The Harlot 1 Tabs
Out Of The Shadows Intro Tabs
Phantom Of The Opera 1 Tabs


Song lyrics



↑ Back to top | Tablatures and chords are parodies/interpretations of the original songs. You may use it for private study, scholarship, research or language learning purposes only
© 2014 AZChords.com Contact us | Privacy policy | DMCA | Add/correct tabs | Request tabs | Top 50 tabs