>
 >
For The Greater Good Of God

For The Greater Good Of God Guitar Tabs

Iron Maiden - For The Greater Good Of God chords, tabs, tablatures, lyrics

Guitar lessons | Add/correct | Request | Top 50 tabs Artists:  A B C D E F G H I J K L M N O P Q R S T U V W X Y Z 0-9

For The Greater Good Of God Guitar Tabs – Iron Maiden

CD, Sheet music, Poster

Do you like For The Greater Good Of God? Share with your friends now
Bass TabsBass Tabs v2TabsTabs v2
Tuning: STANDARD
BASS INTRO (00:01 - 00:18)

GUITAR INTRO (00:19 - 00:43)

e|----------------------------------|
B|----------------------------------|
G|----------------------------2-----|
D|----5-4-2----5-4-2---5-4-2----4-5-|
A|----------------------------------|
E|-0---------0-------0--------------|

e|----------------------------------|
B|----------------------------------|
G|----------------------------------|
D|----5-4-2----5-4-2---5-4-2--5---2-|
A|------------------------------5---|
E|-0---------0-------0--------------|

e|----------------------------------|
B|----------------------------------|
G|----------------------------2-----|
D|----5-4-2----5-4-2---5-4-2----4-5-|
A|----------------------------------|
E|-0---------0-------0--------------|

e|----------------------------------|
B|----------------------------------|
G|----------------------------------|
D|----5-4-2----5-4-2---5-4-2--5---2-|
A|------------------------------5---|
E|-0---------0-------0--------------|

VERSE 1 (00:44 - 1:30)

("Are you a man of peace...")
e|------------------------------------------------|
B|------------------------------------------------|
G|------9--9-------5--5----------------------7--7-|
D|-----9--9-------5--5----------5--5--------7--7--| X8
A|-7----------3---------------5--5------5---------|
E|------------------------3-----------------------|

VERSE 2 (1:31 - 1:51)

("The fire of many shots and...")
e|-----------------------------------------------------------------|
B|-----------------------------------------------------------------|
G|-----------------------------------------------------------------|
D|-9-----9-----9-9-5-----5-----5-5-----------------7-----7-7---7-7-| X4
A|-7-7-7-7-7-7-7-7-3-3-3-3-3-3-3-3-5-----5-----5-5-5-5-5-5-5-5-5-5-|
E|---------------------------------3-3-3-3-3-3-3-3-----------------|

(1:52 - 1:57)
("But I don't know...")
e|-----------------------------------------------------------------|
B|-----------------------------------------------------------------|
G|-----------------------------------------------------------------|
D|-2-----2-2-----2-2-2-----2-----2-5-----5-5-----5-7-----7-----7-7-|
A|-0-0-0-0-0-0-0-0-0-0-0-0-0-0-0-0-3-3-3-3-3-3-3-3-5-5-5-5-5-5-5-5-|
E|-----------------------------------------------------------------|

PRE-CHORUS (1:58 - 2:16)

("Please tell me what...")
e|--------------------------------------------|
B|--------------------------------------------|
G|-4-5--2-4--------2-2-2----------------------|
D|-----------5--5--------4-4-4--5-5-5-4-----2-| X4
A|--------------------------------------5-----|
E|--------------------------------------------|

REPEAT VERSE 2 (2:17 - 2:38)

REPEAT PRE-CHORUS (2:39 - 2:55)

REPEAT VERSE 2 (2:56 - 3:37) X8

(3:38 - 3:42)

("Tell me why...")
e|-----------------------------------------------------------------|
B|-----------------------------------------------------------------|
G|-----------------------------------------------------------------|
D|-2-----2-2-----2-2-2-----2-----2-5-----5-5-----5-7-----7-----7-7-|
A|-0-0-0-0-0-0-0-0-0-0-0-0-0-0-0-0-3-3-3-3-3-3-3-3-5-5-5-5-5-5-5-5-|
E|-----------------------------------------------------------------|

REPEAT PRE-CHORUS (3:43 - 4:18) X8

CHORUS (4:19 - 4:53)

("For the greater good...")
e|----7---------------|
B|------10--8---------|
G|-9-----------9----7-|
D|--------------------|
A|--------------------|
E|--------------------|

("Of God...")
e|------------------7-8-7----7--------|
B|-------7-8-7-8-10-------10---10-8-7-|
G|-9-7-9------------------------------|
D|------------------------------------|
A|------------------------------------|
E|------------------------------------|
REPEAT ALL X8

INTERLUDE 1 (4:54 - 5:36)

e|----------------------------------|
B|----------------------------------|
G|----------------------------2-----|
D|----5-4-2----5-4-2---5-4-2----4-5-|
A|----------------------------------|
E|-0---------0-------0--------------|

e|----------------------------------|
B|----------------------------------|
G|----------------------------------|
D|----5-4-2----5-4-2---5-4-2--5---2-|
A|------------------------------5---|
E|-0---------0-------0--------------|

SOLO ZONE 1 (5:37 - 6:16)

INTERLUDE 2 (6:17 - 6:29)

e|-7------7-8---7-8-10---8-7-------------|
B|-----10--------------------10---8---10-|
G|---------------------------------------|
D|---------------------------------------| X4
A|---------------------------------------|
E|---------------------------------------|

SOLO ZONE 2 (6:30 - 6:44)

REPEAT INTERLUDE 2 (6:44 - 6:58)

INTERLUDE 3 (6:59 - 7:25)

e|------7------------------7--------------------7---------------------|
B|-8-10---------------8-10-----------------8-10---------------8--7----|
G|---------9---9-7-9----------9---9-7-9-----------9---9-7-9--------9--|
D|--------------------------------------------------------------------| X4
A|--------------------------------------------------------------------|
E|--------------------------------------------------------------------|

PRE-CHORUS (7:26 - 8:00)

("Please tell me what...")
e|--------------------------------------------|
B|--------------------------------------------|
G|-4-5--2-4--------2-2-2----------------------|
D|-----------5--5--------4-4-4--5-5-5-4-----2-| X8
A|--------------------------------------5-----|
E|--------------------------------------------|

CHORUS (8:01 - 8:40)

("For the greater good...")
e|----7---------------|
B|------10--8---------|
G|-9-----------9----7-|
D|--------------------|
A|--------------------|
E|--------------------|

("Of God...")
e|------------------7-8-7----7--------|
B|-------7-8-7-8-10-------10---10-8-7-|
G|-9-7-9------------------------------|
D|------------------------------------|
A|------------------------------------|
E|------------------------------------|
REPEAT ALL X8

VERSE 4 (8:41 - 9:08)

("He gave his life for us...")
e|------------------------------------------------|
B|------------------------------------------------|
G|------9--9-------5--5----------------------7--7-|
D|-----9--9-------5--5----------5--5--------7--7--| X4
A|-7----------3---------------5--5------5---------|
E|------------------------3-----------------------|

OUTRO (9:08 - 9:25)

e|----------------------------------|
B|----------------------------------|
G|----------------------------------|
D|----5-4-2----5-4-2---5-4-2--5---2-|
A|------------------------------5---|
E|-0---------0-------0--------------|





Comments


Popular Iron Maiden tabs & chords
Innocent Exile 1 Bass Tabs
Doctor Doctor Chords
Flash Of The Blade Drum Tabs
Killers Drum Tabs
22, Acacia Avenue 2 Tabs
Genghis Khan 1 Tabs
Im A Mover Tabs
Out Of The Shadows 1 Tabs
Out Of The Silent Planet Tabs
Prowler Riff Tabs


Song lyrics



↑ Back to top | Tablatures and chords are parodies/interpretations of the original songs. You may use it for private study, scholarship, research or language learning purposes only
© 2014 AZChords.com Contact us | Privacy policy | DMCA | Add/correct tabs | Request tabs | Top 50 tabs