>
 >
Coming Home

Coming Home Guitar Tabs

Iron Maiden - Coming Home chords, tabs, tablatures, lyrics

Guitar lessons | Add/correct | Request | Top 50 tabs Artists:  A B C D E F G H I J K L M N O P Q R S T U V W X Y Z 0-9

Coming Home Guitar Tabs – Iron Maiden

CD, Sheet music, Poster

Do you like Coming Home? Share with your friends now
TabsTabs v2
-----------------------------------------------------------------------

                  Iron Maiden - Coming Home
-----------------------------------------------------------------------

Tuning: EADGBE

Dave/Janick
e|-------------------------------------------------------------|
B|-------------------------------------------------------------|
G|-------------------------------------------------------------|
D|------9---------7--------5---5------5--------4---------2---2-|
A|---10---10----9---9----7---7------7---7----5---5-----3---3---|
E|-0----------0--------0----------0--------0---------0---------|


e|--------------------------------------------------------|
B|--------------------------------------------------------|
G|--------------------------------------------------------|
D|-----2--------0-----------------------------------------|
A|---3---3----2---2------3---3----------------------------|
E|-0--------0--------0-5---5------------------------------|


e|--------------------------------------------------------|
B|--------------------------------------------------------|
G|--------------------------------------------------------|
D|--------------------------------------------------------|
A|---0-3----2-5----3-7----5-9----5-9-5--------------------|
E|-1------3------3------5------7--------------------------|

Adrian
e|----------------------------------------------------------|
B|----------------------------------------------------------|
G|----------------------------------------------------------|
D|-----5--------4--------2---2------2--------0--------------|
A|---7---7----5---5----3---3------3---3----2---2------3---3-|
E|-0--------0--------0----------0--------0--------0-5---5---|

e|--------------------------------------------------------|
B|--------------------------------------------------------|
G|--------------------------------------------------------|
D|--------------------------------------------------------|
A|-----3--------2--------0---0----------------------------|
E|-0-5---5--0-3---3--0-1---1------------------------------|

e|--------------------------------------------------------|
B|--------------------------------------------------------|
G|--------------------------------------------------------|
D|--------------------------------------------------------|
A|---0-3----2-5----3-5----3-5---3-7-----------------------|
E|-1------3------3------5-----5-----5---------------------|


e|--------------------------------------------------------|
B|--------------------------------------------------------|
G|-------------------4------------------------------------|
D|-------------------4------------------------------------|
A|-------------------2------------------------------------|
E|--------------------------------------------------------|


Verse

Em G Am C (x2)

Interlude
e|--------------------------------------------------------|
B|--------------------------------------------------------|
G|-7-7-7-7-7-7-7--5----9-9-9-9-9-9-----9---12-------------|
D|-7-7-7-7-7-7-7--5----9-9-9-9-9-9-----9---12-----x3------|
A|-5-5-5-5-5-5-5--3----7-7-7-7-7-7-----7---10-------------|
E|--------------------------------------------------------|


e|--------------------------------------------------------|
B|--------------------------------------------------------|
G|------5-----------------5-----7-------------------------|
D|------5-5-2--5----------5-----7-------------------------|
A|-0-2--3-2-0--5-5-2------3-----5-------------------------|
E|-------------3-2-0--------------------------------------|

Chorus
e|--------------------------------------------------------|
B|--------------------------------------------------------|
G|------------------5----------------5-------------7------|
D|---------5--------5-----5----------5-----5-------7------|
A|-2-------5---0-2--3--2--5-5-2--0-2-3--2--5-5-2---5------|
E|-0--0-2--3--------------3-2-0------------3-2-0----------|

e|--------------------------------------------------------|
B|--------------------------------------------------------|
G|-4---5--------------------------------------------------|
D|-4---5--------------------------------------------------|
A|-2---3--------------------------------------------------|
E|--------------------------------------------------------|

Repeat all of the above again. The Chords for Dave's solo are the verse chord's and the 
for Adrian's are the Interlude chords.

I Don't know Dave's solo so...


Adrian Solo
e|------12-14-15-14-12-----------------------------------------|
B|-15b-----------------12--------------------------------------|
G|------------------------12\11-----------------------12-12----|
D|------------------------------14--12----12----12h14-------14-|
A|-------------------------------------14----14----------------|
E|-------------------------------------------------------------|

e|--------------------------------------------------------|
B|--------------------------------------------------------|
G|-11br11-9-----11\9-----9\7-9-7--------------------------|
D|--------------------------------------------------------|
A|-----------12-------10----------9-----------------------|
E|--------------------------------------------------------|

e|--------------------------------------------------------|
B|--------------------------------------------------------|
G|--------------------------------------------------------|
D|-4-5-4---4-------5-5------------------------------------|
A|-------7---7-5-7-----7----------------------------------|
E|--------------------------------------------------------|

e|------12-14-15-14-12----12--------------12--15-12h15p12-|
B|-15b-----------------15----15-12-----12-----------------|
G|---------------------------------14b--------------------|
D|--------------------------------------------------------|
A|--------------------------------------------------------|
E|--------------------------------------------------------|

e|----12--------------12----------------------------------|
B|-15----15-12-----12----15-12----------------------------|
G|-------------14b-------------15-14-12----12-------------|
D|--------------------------------------14----14----------|
A|--------------------------------------------------------|
E|--------------------------------------------------------|

e|--------------------------------------------------------|
B|-15p12--------------------------------------------------|
G|--------14p12-----12h14---------------------------------|
D|------------------------14-12---------------------------|
A|--------------14--------------12-14-10------------------|
E|--------------------------------------------------------|

e|--------------------------------------------------------|
B|--------------------------------------------------------|
G|------------------9-11-12----12-11-12/14-11-------------|
D|----------9-10-12----------------------------14-12h14---|
A|----10-12-----------------------------------------------|
E|-12-----------------------------------------------------|

Repeat the chorus and then play the Intro / Outro

Adrian Smith
e|--------------------------------------------------------|
B|--------------------------------------------------------|
G|----------------------------2---------------------------|
D|----------------------------2---------------------------|
A|---0-3------2-5------3-7-3--0---------------------------|
E|-1-----1--3-----3--5------------------------------------|

Dave/Janick
e|--------------------------------------------------------|
B|--------------------------------------------------------|
G|------------------------------2-------------------------|
D|-----3------------------7-----2-------------------------|
A|---0----0---2-5-2-----7---7---0-------------------------|
E|-1--------3---------5-----------------------------------|





Comments


Popular Iron Maiden tabs & chords
Caught Somewhere In Time Bass Tabs
Back In The Village 2 Tabs
Communication Breakdown Tabs
Different World Tabs
Holy Smoke 2 Tabs
Invaders 1 Tabs
Killers 2 Tabs
Mother Russia 3 Tabs
Run Silent, Run Deep 1 Tabs
Wildest Dreams Tabs


Song lyrics



↑ Back to top | Tablatures and chords are parodies/interpretations of the original songs. You may use it for private study, scholarship, research or language learning purposes only
© 2014 AZChords.com Contact us | Privacy policy | DMCA | Add/correct tabs | Request tabs | Top 50 tabs