>
 >
Blood On The World's Hands 2

Blood On The World's Hands 2 Guitar Tabs

Iron Maiden - Blood On The World's Hands 2 chords, tabs, tablatures, lyrics

Guitar lessons | Add/correct | Request | Top 50 tabs Artists:  A B C D E F G H I J K L M N O P Q R S T U V W X Y Z 0-9

Blood On The World's Hands 2 Guitar Tabs – Iron Maiden

CD, Sheet music, Poster

Do you like Blood On The World's Hands 2? Share with your friends now
TabsTabs v2Tabs v3
Intro (2X):
e|-----------------|-------------5-----|
B|--5-5--5-7-8-7-5-|--5-5--5-7-8---8-7-|
G|-----------------|-------------------|
D|-----------------|-------------------|
A|-----------------|-------------------|
E|-----------------|-------------------|

e|-----------------|-------------------|
B|--5-5--5-7-8-7-5-|--5-5--5-7-8-----7-|
G|-----------------|-------------4-7---|
D|-----------------|-------------------|
A|-----------------|-------------------|
E|-----------------|-------------------|
VERSE-1:
 C5  C5   C5  C5   C5 G5 G5 G5   C5  C5   C5  C5   C5 G5 G5 G5 
SOMETIMES IT MAKES ME WONDER  | SOMETIMES IT MAKES ME QUESTION
SOMETIMES IT MAKES ME SADDENED| ALWAYS IT MAKES ME ANGRY BUT...
WHEN YOU CAN SEE IT HAPPENING | THE MADNESS THAT'S ALL AROUND YOU
NOBODY SEEMS TO WORRY         | THE WORLD SEEMS SO POWERLESS TO...

CHORUS:                             
ACT !                               IT'S OUT OF 
CONTROL                             BLOOD ON THE 
WORLD'S HANDS                       EACH DAY A 
NEW TOLL
e|-------------------------------------------|
B|-------------------------------------------|
G|-------------------------------------------|
D|-------------------------------------5-----|
A|-3-2-0-0-0-0-3-2-0-0-0-0-5-4-0-0-0-0---5-7-|
E|-------------------------------------------|

VERSE-2:
 C5  C5   C5  C5   C5 G5 G5 G5   C5  C5   C5  C5   C5 G5 G5 G5 
ANOTHER ASSINATION            | THE SAME DAY A NEW CREATION
BUT WHAT ARE THEY COMING INTO | SECURITY OF A WORLD THAT BRING...
ONE DAY ANOTHER KILLING       | SOMEWHERE THERE'S SOMEONE STARVING
ANOTHER A SAVAGE RAPPING      | MEANWHILE THERE'S SOMEONE LAUGHTING...

CHORUS.

RIFF-1 (4X)
e|-------------------------------------------|
B|-------------------------------------------|
G|-------------------------------------------|
D|-------------------------------------5-----|
A|-0-0-7-8-7-0-0-0-7-8-7-0-0-0-7-8-7-0---5-7-|
E|-------------------------------------------|

Solo riff (for guitar I- 4X)
e|----------------------|----------------------|
B|----------------------|----------------------|
G|---------9--7--5--5-5-|---------7--7---------|
D|---------9--7--5--5-5-|---------7--7--7--7-7-|
A|---------7--5--3--3-3-|---------9--5--7--7-7-|
E|-0-0-0-0--------------|-0-0-0-0-------5--5-5-|

RIFF-2 (2X):
e|--------------------------------|
B|--------------------------------|
G|--------------------------------|
D|--------------------------------|
A|-3-2-0-0-5-4-0-0-7-6-0-10-9-0-9-|
E|--------------------------------|
Solo-riff (4x).

RIFF-3(2X)
 |GUITAR-I                        |
e|--------------------------------|
B|--------------------------------|
G|--------------------------------|
D|--------------------------------|
A|-3-2-0-0-5-4-0-0-7-6-0-10-9-0-9-|
E|--------------------------------|
 |                                |
 |GUITAR-II                 /FULL\|
e|--------------------------12-12-|
B|--------------------------12-12-|
G|--------------------------------|
D|--------------------------------|
A|--------------------------------|
E|--------------------------------|

RIFF-4:
Guitar I: 
           Blood on the world's hands       Blood on the world's hands
e|--------------------------------|---------------------------------|
B|--------------------------------|---------------------------------|
G|--------------------------------|---------------------------------|
D|-7-7--7-7-7----------7-7--7-7-7-|-5-5--5-5-5----------5-5--5-5-5--|
A|-7-7--7-7-7----------7-7--7-7-7-|-5-5--5-5-5----------5-5--5-5-5--|
E|-5-5--5-5-5----------5-5--5-5-5-|-3-3--3-3-3----------3-3--3-3-3--|
             |Let ring|                       |Let ring|
Guitar II:
e|------------3---2---0-----------|------------3---2---0------------|
B|--------------------------------|---------------------------------|
G|--------------------------------|---------------------------------|
D|--------------------------------|---------------------------------|
A|--------------------------------|---------------------------------|
E|--------------------------------|---------------------------------|

RIFF-5 (3x and all full and the other guitar plays RIFF-4):
e|-3-2---0--3-0-|
B|-----3--------|
G|--------------|
D|--------------|
A|--------------|
E|--------------|

RIFF-4.

RIFF-1.

VERSE-3:
 C5  C5   C5  C5   C5 G5 G5 G5   C5  C5   C5  C5   C5 G5 G5 G5 
BRUTALITY AND AGGRESSION           | TOMORROW ANOTHER LESSON
EXPECTING ANOTHER AIR RAID         | PRAYING FOR A CEASEFIRE...
THEY SAY THINGS ARE GETTING BETTER | NO NEED TO BE COMPLACENT
THERE'S CHAOS ACROSS THE BORDER    | AND ONE DAY IT COULD BE HAPPENING...

FINAL RIFF (PLAY CHORUS RIFF 'TILL THE END):
TO US                               IT'S OUT OF 
CONTROL                             BLOOD ON THE 
WORLD'S HANDS                       IT'S OUR 
EPITAPH                             IT'S OUT OF 
CONTROL                             SOMEONE SHOULD 
KNOW                                BLOOD ON THE 
WORLD'S HANDS                       SOMEONE SHOULD !
e|-------------------------------------------|
B|-------------------------------------------|
G|-------------------------------------------|
D|-------------------------------------5-----|
A|-3-2-0-0-0-0-3-2-0-0-0-0-5-4-0-0-0-0---5-7-|
E|-------------------------------------------|





Comments


Popular Iron Maiden tabs & chords
2 Am Bass Tabs
Hallowed Be Thy Name Bass Tabs
Mother Of Mercy Bass Tabs
Aces High 9 Tabs
Blood Brothers 8 Tabs
Invaders 1 Tabs
No More Lies 1 Tabs
Pilgrim Tabs
Powerslave 1 Tabs
Rainmaker 2 Tabs


Song lyrics



↑ Back to top | Tablatures and chords are parodies/interpretations of the original songs. You may use it for private study, scholarship, research or language learning purposes only
© 2014 AZChords.com Contact us | Privacy policy | DMCA | Add/correct tabs | Request tabs | Top 50 tabs