>
 >
Blood Brothers

Blood Brothers Bass Tabs

Iron Maiden - Blood Brothers chords, tabs, tablatures, lyrics

Guitar lessons | Add/correct | Request | Top 50 tabs Artists:  A B C D E F G H I J K L M N O P Q R S T U V W X Y Z 0-9

Blood Brothers Bass Tabs – Iron Maiden

CD, Sheet music, Poster

Do you like Blood Brothers? Share with your friends now
Bass TabsBass Tabs v2Drum TabsTabsTabs v2Tabs v3Tabs v4Tabs v5Tabs v6Tabs v7Tabs v8
 Band: Iron Maiden

Intro                                                     Play x4
|------------7---------12---12----14-----------------7----------------------|
|---9---9--5---5--5/10---10----12---\12-----2---2--5---5-----5---5------7---|
|-----7---------------------------------------2-----------3----3-----5----7-|
|0---------------------------------------0----------------------------------|

  (0:34)Verse1 (0:35)          Play x4 (0:34 to 0:50)
|---9---9------7---7------5---5------7---7-----|----|
|------------5---5---5-------------------------|-X4-|
|-7---7---7-------------3---3---3--5---5---5---|----|
|----------------------------------------------|----|
(0:51)Verse2 (0:53)    (0:54)
|--------77-77------------------77-77--|
|-99-999-55-55-55-55-777-99-999-55-55--|
|-77-777-------33-33-555-77-777--------|
|--------------------------------------|

 (0:57)     (0:59)
|-----------------77-77------------------77-77------------|
|-55-55-777-9-999-55-55-55-55-777-99-999-55-55-55-55-777--|
|-33-33-555-7-777-------33-33-555-77-777-------33-33-555--|
|---------------------------------------------------------|

 (1:06)Chorus                   (1:18)Cont.Chorus
|-99-99955-555-------7-|----|-99-99955-555-------77--|
|-99-99955-55555-555-7-|-X3-|-99-99955-55555-555-77--|
|-77-77733-33355-555-5-|----|-77-77733-33355-555-55--|
|-------------33-333---|----|-------------33-333-----|

 (1:22)Verse3    (1:22 to 1:36)
|-99-999-77-77-55-55-777-|----|--|
|-99-999-55-55-55-55-777-|-X4-|--|
|-77-777-------33-33-555-|----|--|
|------------------------|----|--|
  (1:37)Chorus                (1:48)Cont.Chorus
|-99-99955-55-------7-|----|----99955-55-------77--|
|-99-99955-5555-555-7-|-X3-|----99955-5555-555-77--|
|-77-77733-3355-555-5-|----|-77-77733-3355-555-55--|
|------------33-333---|----|------------33-333-----|

   (1:52)Interlude1(Like Intro)                       Play x2 (1:52 to 2:09)
|------------7---------12---12----14-----------------7----------------------|
|---9---9--5---5--5/10---10----12---\12-----2---2--5---5-----5---5------7---|
|-----7---------------------------------------2-----------3----3-----5----7-|
|0---------------------------------------0----------------------------------|

  (2:09)Verse4"There are times...       Play x2 (2:09 to 2:24)
|-99-999-77-77-55-55-777-99-999-77-77-55-55-7-|----|-------|
|-99-999-55-55-55-55-777-99-999-55-55-55-55-7-|-X2-|-------|
|-77-777-------33-33-555-77-777-------33-33-5-|----|-------|
|---------------------------------------------|----|-------|

  (2:25)Verse5             (2:29)       (2:31)   Play x2 (2:25 to 2:39)
 G-|-99-999-77-77-55-55-777-99-999-77-77-55-55-7-|----|----------------|
 D-|-99-999-55-55-55-55-777-99-999-55-55-55-55-7-|-X2-|----------------|
 A-|-77-777-------33-33-555-77-777-------33-33-5-|----|----------------|
 E-|---------------------------------------------|----|----------------|

  (2:40)Chorus                   (2:52)Cont.Chorus
 G-|-99-99955-555-------7-|----|-99-99955-555-------77--|
 D-|-99-99955-55555-555-7-|-X3-|-99-99955-55555-555-77--|
 A-|-77-77733-33355-555-5-|----|-77-77733-33355-555-55--|
 E-|-------------33-333---|----|-------------33-333-----|

   (2:55)Riff     (2:57)    (2:58)  (2:59) Play x4 (2:55 to 3:10)
|-99-999-77-77------12-------14----99-999-77-77-55-55-7-|----|--|
|-99-999-55-55-5/10---10--12---12--99-999-55-55-55-55-7-|-X4-|--|
|-77-777---------------------------77-777-------33-33-5-|----|--|
|-------------------------------------------------------|----|--|
   (3:10)Solo     Play x4 (3:10 to 3:25)
|-99-999-77-77-55-55-777-|-----|
|-99-999-55-55-55-55-777-|-X4--|
|-77-777-------33-33-555-|-----|
|------------------------|-----|

 (3:25)Riff2           Play x 4 (3:25 to 3:55)
|-9------------7----5--------7--------|----|
|-9------------5-55-5--------7--------|-X4-|
|-7-777-777-77------3-333-33-5-555-55-|----|
|-------------------------------------|----|
(3:56)Interlude2                       (4:03)     (4:04)
|-------9--9-----9--9-----9--9------9--9-----14--14----12--12--|
|-----9--9-----9--9-----9--9--9---9--9---------14--------12----|
|-7-7--------7--------7---------7---------12--------10---------|
|--------------------------------------------------------------|

  (4:05)               (4:06)
|-----9--9-------9--9-----14--14----12--12-|
|---9--9--9----9--9---------14--------12---|
|-7----------7---------12--------10--------|
|------------------------------------------|
(4:09)               (4:11)               (4:13)  (4:14)
|-----9--9-------9--9-----14--14----12--12-|
|---9--9--9----9--9---------14--------12---|
|-7----------7---------12--------10--------|
|------------------------------------------|

 (4:13)  (4:14)  (4:15)   (4:17)   (4:17)
|--5---5----7---7----5---5----7---7------9--9------9--9------9--9------9--9--|
|----5--------7--------5--------7------9--9--9---9--9--9---9--9--9---9--9--9-|
|3--------5--------3--------5--------7---------7---------7---------7---------|
|----------------------------------------------------------------------------|

   (4:21)               (4:23)
|-----9--9------9--9----5---5-----------|
|---9--9--9---9--9--------5-----7---7---|
|-7---------7---------3-----------7-----|
|-----------------------------5---------|

 (4:25)              (4:27)           (4:29)              (4:31)  Play x2
|----9--9------9--9----5---5--------------7--7------7--7----5---5---------|
|--9--9--9---9--9--------5-----7---7----7--7--7---7--7--------5-----7---7-|
|7---------7---------3-----------7----5---------5---------3-----------7---|
|----------------------------5------------------------------------5-------|

  (4:45)
|-----9--9------9--9------9--9------9--9---|
|---9--9--9---9--9--9---9--9--9---9--9--9--|
|-7---------7---------7---------7----------|
|------------------------------------------|

   (4:50)"When you think that...
|-----9--9------9--9----5---5----------|
|---9--9--9---9--9--------5-----7---7-|
|-7---------7---------3-----------7----|
|-----------------------------5--------|
Play x2 (4:50 to 5:13)
|----9--9------9--9----5---5--------------7--7------7--7----5---5---------|
|--9--9--9---9--9--------5-----7---7----7--7--7---7--7--------5-----7---7-|
|7---------7---------3-----------7----5---------5---------3-----------7---|
|----------------------------5------------------------------------5-------|

  (5:14)
|-----9--9------9--9------9--9------9--9---|
|---9--9--9---9--9--9---9--9--9---9--9--9--|
|-7---------7---------7---------7----------|
|------------------------------------------|

   (5:17)       (5:19)     (5:21)       (5:23)    (5:25)  Play x2
|-9------------5----------9-----------5----------7-----------5---------|-9-|
|-9------------5----7-----9-----------5----7-----7-----------5----7----|-9-|
|-7-7-7-7--77--3-33-7-----7-7-7-7-77--3-33-7-----5-5-5-5-55--3-33-7----|-7-|
|-------------------5-55-------------------5-55-------------------5-55-|---|

   (5:45)Solo2  (5:47)    (5:49)      (5:50)     (5:52) Play x2
|-9-----------5----------9-----------5----------7-----------5---------|-9-|
|-9-----------5----7-----9-----------5----7-----7-----------5----7----|-9-|
|-7-7777-777--3-33-7-----7-7777-777--3-33-7-----5-5555-555--3-33-7----|-7-|
|------------------5-55-------------------5-55-------------------5-55-|---|

   (6:11)Chorus x7            (6:37)Cont.Chorus
|-99-99955-55-------7-|----|-99-99955-55-------77--|
|-99-99955-5555-555-7-|-X7-|-99-99955-5555-555-77--|
|-77-77733-3355-555-5-|----|-77-77733-3355-555-55--|
|------------33-333---|----|------------33-333-----|

 (6:41)Outro                              (6:45)
|------------7---------12---12----14-----------------7----------------------|
|---9---9--5---5--5/10---10----12---\12-----2---2--5---5-----5---5------7---|
|-----7---------------------------------------2-----------3----3-----5----7-|
|0---------------------------------------0----------------------------------|

                       (6:54)
|------------7---------12---12----14-----------------7----------------------|
|---9---9--5---5--5/10---10----12---\12-----2---2--5---5-----5---5------7---|
|-----7---------------------------------------2-----------3----3-----5----7-|
|0---------------------------------------0----------------------------------|





Comments


Popular Iron Maiden tabs & chords
Montsegur 3 Bass Tabs
Running Free Intro 1 Bass Tabs
The Wicker Man 1 Bass Tabs
Blood On The World's Hands Tabs
Children Of The Damned 2 Tabs
Dance Of Death Intro Tabs
Invaders Tabs
Lord Of The Flies Tabs
No More Lies 2 Tabs
Out Of The Silent Planet 1 Tabs


Song lyrics



↑ Back to top | Tablatures and chords are parodies/interpretations of the original songs. You may use it for private study, scholarship, research or language learning purposes only
© 2014 AZChords.com Contact us | Privacy policy | DMCA | Add/correct tabs | Request tabs | Top 50 tabs