» » »

Iron Maiden, Aces High Tabs (ver.7)

Artists:  A B C D E F G H I J K L M N O P Q R S T U V W X Y Z # 

Aces High Tabs (ver.7)

Iron Maiden Tabs
 Rating:
4/5 (6 votes)
Aces High lessons Tabs too difficult? Try these video lessons and learn fast
                Intro ------------|----------
      ------------|----------
      ----1---2-1-|---1------
      --4---4-----|-4---4-2--
      ------------|----------
      ------------|----------

Intro 2 --------------------------------------------------
        ---------------5-5-----------------------5--------
        --5--4-5-4-5-4-----5--5--4-5-4-5-4-7-7-7---7-5-4--
        --------------------------------------------------
        --------------------------------------------------
        --------------------------------------------------

Verse -----------------------------------
      -----------------------------------
      -----------------------------------
      --9-11-12-14-12-11-9-12-11-7-11-7--
      --7--9-10-12-10--9-7-10--9-5--9-5--
      -----------------------------------

      ------------------------------
      ------------------------------
      ------------------------------
      --9-11-12-14-12-11-9-12-11-7--
      --7--9-10-12-10--9-7-10--9-5--
      ------------------------------

      -----------------------------------
      -----------------------------------
      --9-11-12-14-12-11-9-12-11-7-11-7--
      --7--9-10-12-10--9-7-10--9-5--9-5--
      -----------------------------------
      -----------------------------------

      ------------------------------
      ------------------------------
      --9-11-12-14-12-11-9-12-11-7--
      --7--9-10-12-10--9-7-10--9-5--
      ------------------------------
      ------------------------------

Pre Chorus -------------------------------------------------
           -------------------------------------------------
           ------------0---------2---------5-4-2-0-4-2-0----
           --0-2-2-2-2---2-2-2-2---2-2-2-2---------------4--
           -------------------------------------------------
           -------------------------------------------------

           -------------------------------------------
           -------------------------------------------
           ------------0---------2---------5-4-2-0-5--
           --0-2-2-2-2---2-2-2-2---2-2-2-2------------
           -------------------------------------------
           -------------------------------------------

Chorus ---------|----------
       ---------|----------
       -----5-7-|----8-10--
       --2--5-7-|-5--8-10--
       --2--3-5-|-5--6--8--
       --0------|-3--------

Post Chorus ----------------------------------------
            ----------------------------------------
            ----------------------------------------
            ----------------------------------------
            --0-3-3-0-0-3-2-0-5--0-3-3-0-0-3-2-0-0--
            ----------------------------------------

i've broken the solo into parts to make it easier

Solo -----------------------
     ----------------5-8-8--
     --7--7--7--7-7---------
     -----------------------
     -----------------------

     ----------------------------------------------
     ----------------------------------------------
     --12-9----9-----------------------------------
     -------12---12-10-12-10----10-----------------
     ------------------------12----12-10-12-10-----
     ------------------------------------------12--

     --8-5-0-7-5-0-8-5-0-7-5-0-8-5-0-7-5-0--------
     ---------------------------------------8-10--
     ---------------------------------------------
     ---------------------------------------------
     ---------------------------------------------
     ---------------------------------------------

     -------------------------------------
     ----------------------------5-6-5-8--
     --------------4-5-4---4-5-7----------
     --5-7-5---5-7-------7----------------
     --------7----------------------------
     -------------------------------------

     ------------------------------------------------------------------
     -15-12-0-15-14-0-15-12-0-15-14-0-15-12-0-15-14-0-15-12-0-15-14-0--
     ------------------------------------------------------------------
     ------------------------------------------------------------------
     ------------------------------------------------------------------
     ------------------------------------------------------------------

     --------------------------------
     --12-10-8-10-8-7-8-7-5-7-8-7----
     -----------------------------7--
     --------------------------------
     --------------------------------
     --------------------------------

     ----------------------------------------------
     ------7-10-9-7---9-7--------------------------
     ----7----------9-----9-10-9-7---9-7-----------
     --9---------------------------9-----9-7-------
     ----------------------------------------9-----
     ------------------------------------------10--

     ------------------------------------------17--
     ---------------------------15-17-17-17-15-----
     --11-10-9-7-------------16--------------------
     ------------9-8-7-----------------------------
     ------------------9-8-7-----------------------
     ----------------------------------------------

Post Chorus

Verse

Pre Chorus

Chorus

Intro 2
            
Submit corrections

comments powered by Disqus
↑ Back to top | Iron Maiden Tabs for Aces High. Lyrics for acoustic guitar and electric guitar. Tablatures and chords are parodies/interpretations of the original songs. You may use it for private study, scholarship, research or language learning purposes only