» » »

Iron Maiden, Aces High Tabs (ver.3)

Artists:  A B C D E F G H I J K L M N O P Q R S T U V W X Y Z # 

Aces High Tabs (ver.3)

Iron Maiden Tabs
Rating:
4/5 (8 votes)
Aces High lessons Tabs too difficult? Try these video lessons and learn fast
                A. Intro            
 [15x]               When u have played 
                     the intro 15 times, 
                     play this one once.
E-------------------|------------------
B-------------------|------------------
G--------1----2-1---|-------1----------
D--2--4-----4-------|-2--4----4--2-----
A-------------------|------------------
E-------------------|------------------


B.
 [4x]
E-----------------------------------------------------
B--------------5-5------------------------5-----------
G-5-4-5p4--5p4-----5---5-4-5p4-5--4-7-7-7---7-5-4-----
D-----------------------------------------------------
A-----------------------------------------------------
E-----------------------------------------------------


Now the singing begins, the verse.
There goes the siren....
c.
 [2x]
E---------------------------------|--------
B---------------------------------|--------
G---------------------------------|--------
D-9-11-12-14-12-11-9-12-11-7-11-7-|--------
A-7-9--10-12-10-9--7-10-9--5-9--5-|--------
E-0-0--0--0--0--0--0-0--0--0-0--0-|--------

E---------------------------------|--------
B---------------------------------|--------
G---------------------------------|--------
D-9-11-12-14-12-11-9-12-11-7------|--------
A-7-9--10-12-10-9--7-10-9--5------|--------
E-0-0--0--0--0--0--0-0--0--0------|--------

 [2x]
E---------------------------------|--------
B---------------------------------|--------
G-9-11-12-14-12-11-9-12-11-7-11-7-|--------
D-7-9--10-12-10-9--7-10-9--5-9--5-|--------
A-0-0--0--0--0--0--0-0--0--0-0--0-|--------
E---------------------------------|--------

E---------------------------------|--------
B---------------------------------|--------
G-9-11-12-14-12-11-9-12-11-7------|--------
D-7-9--10-12-10-9--7-10-9--5------|--------
A-0-0--0--0--0--0--0-0--0--0------|--------
E---------------------------------|--------


I'v written four "fast" 2's. Play the 8 times insted of the four I'v written.
D.
 [4x]                                 
 Play This and something of the   Play this the 1st    Play this the
 following things                 3rd and 4th time     2nd time
E--------------------------------|--------------------|--------------|
B--------------------------------|--------------------|--------------|
G-----------0---------2----------|--5-4-2-0-4-2-0-----|--5-4-2-0-5---|
D-0-2-2-2-2---2-2-2-2---2-2-2-2--|----------------2---|--------------|
A--------------------------------|--------------------|--------------|
E--------------------------------|--------------------|--------------|


Now the singing begins again
Ruuuuuun live to flyyyyyyyy.....

E.
 [1x]
E-----------------------------------------|------
B-----------------------------------------|------
G-----------------------------------------|------
D--9--5--7--9--5--7--9--5--7--9--5--7--12-|------
A--7--3--5--7--3--5--7--3--5--7--3--5--10-|------
E-----------------------------------------|------

E-----------------------------------------|------
B-----------------------------------------|------
G-----------------------------------------|------
D--8--10--12--8--10--12--8--10--12--8--10-|------
A--6--8---10--6--8---10--6--8---10--6--8--|------
E-----------------------------------------|------


F.
 [2x]
E-----------------------|-----------------------------------------
B-----------------------|-----------------------------------------
G-----------------------|-----------------------------------------
D-----------------------|-----------------------------------------
A-0-3-3-0-0-3-2-0---5-5-|-0-3-3-0-0-3-2-0---0-0-------------------
E-----------------3-----|-----------------3-----------------------

E-----------------------|-----------------------------------------
B-----------------------|-----------------------------------------
G-----------------------|-----------------------------------------
D-----------------------|-----------------------------------------
A-0-3-3-0-0-3-2-0---5-5-|-0-3-3-0-0-3-2-0---0---------------------
E-----------------3-----|-----------------3-----------------------

This is all I know folks!


Made By SKURT
            
Submit corrections

comments powered by Disqus
↑ Back to top | Iron Maiden Tabs for Aces High. Lyrics for acoustic guitar and electric guitar. Tablatures and chords are parodies/interpretations of the original songs. You may use it for private study, scholarship, research or language learning purposes only