» » »

In This Moment, Beautiful Tragedy Bass tabs (ver.1)

Artists:  A B C D E F G H I J K L M N O P Q R S T U V W X Y Z # 

Beautiful Tragedy Bass tabs (ver.1)

In This Moment Tabs
Rating:
5/5 (1 vote)
Beautiful Tragedy lessons Tabs too difficult? Try these video lessons and learn fast
                Beautiful Tragedy by In This Moment
Bassist: Jesse Landry
Standard B (BEADG) uses 5 string bass or can tune down to (BEAD) 
but I would recomend using Ernie Ball Super Slinky Bass Strings 
(Pink Pack) Mainly this song goes along with the 
guitar line which happens to be a 7 string guitar tuned to
(BEADGBE) other than the acoustic guitar part and the 
intro until the rythym guitar begins (unknown what 
the rythem guitarist's guitar is tuned too)

Intro(im not sure if anything is played in this part but 
this goes with the rythem of the song)
G|----------------------------------------------|
D|----------------------------------------------|
A|----------------------------------------------|
E|----------------------------------------------|
B|--5---------3-----------7---------------------|

Intro (Part 2)(also chorus)
G|------------------------------------------------------------------|
D|------------------------------------------------------------------|
A|------------------------------------------------------------------|x2
E|8-88-88-88-8888---------------------------------------------------|
B|-----------------5-55-55-55-5555-3-33-33-33-3333--3-33-33-33-3333-|

Verse(listen to song for timing)
G|------------------------------------------------------------------|
D|------------------------------------------------------------------|
A|------------------------------------------------------------------|
E|------------------------------------------------------------------|
B|--5-5--5-5--3~-3~-5-5--5-5--3~-3~-5-5--5-5--3~-3~--5-5--5-5-3~-3~-|

Chorus
G|------------------------------------------------------------------|
D|------------------------------------------------------------------|
A|------------------------------------------------------------------|x2
E|8-88-88-88-8888---------------------------------------------------|
B|-----------------5-55-55-55-5555-3-33-33-33-3333--3-33-33-33-3333-|

Verse 2
G|------------------------------------------------------------------|
D|------------------------------------------------------------------|
A|------------------------------------------------------------------|
E|------------------------------------------------------------------|
B|--5-5--5-5--3~-3~-5-5--5-5--3~-3~-5-5--5-5--3~-3~--5-5--5-5-3~-3~-|

Chorus 2
G|------------------------------------------------------------------|
D|------------------------------------------------------------------|
A|------------------------------------------------------------------|x2
E|8-88-88-88-8888---------------------------------------------------|
B|-----------------5-55-55-55-5555-3-33-33-33-3333--3-33-33-33-3333-|

Breakdown
(just follow the guitar and the opens on the b can be P.M.
or you can just hold the open B, which ever is prefered)
G|----------------------------------------------|
D|----------------------------------------------|
A|----------------------------------------------|x8
E|-------10-7-8-7-5-7---------------------------|
B|----------------------------------------------|

Acoustic Interlude(you can either hold out open B or lightly play opens)
G|----------------------------------------------|
D|----------------------------------------------|
A|----------------------------------------------|
E|----------------------------------------------|
B|0000000000000000000000000000000000000000000000|

Chorus/Outro
G|------------------------------------------------------------------|
D|------------------------------------------------------------------|
A|------------------------------------------------------------------|x2
E|8-88-88-88-8888---------------------------------------------------|
B|-----------------5-55-55-55-5555-3-33-33-33-3333--3-33-33-33-3333~|
then hold out last 3 played
I've spaced the tab that will hopefully be more printer friendly email
need any help interpreting the tab
            
Submit corrections

comments powered by Disqus
↑ Back to top | In This Moment Bass for Beautiful Tragedy. Lyrics for acoustic guitar and electric guitar. Tablatures and chords are parodies/interpretations of the original songs. You may use it for private study, scholarship, research or language learning purposes only