>
 >
Beautiful Tragedy

Beautiful Tragedy Guitar Tabs

In This Moment - Beautiful Tragedy chords, tabs, tablatures, lyrics

Guitar lessons | Add/correct | Request | Top 50 tabs Artists:  A B C D E F G H I J K L M N O P Q R S T U V W X Y Z 0-9

Beautiful Tragedy Guitar Tabs – In This Moment

CD, Sheet music, Poster

Do you like Beautiful Tragedy? Share with your friends now
Bass TabsTabsTabs v2Tabs v3Tabs v4
----------------------------------------------------------------------------


I couldn't find any full tabs of this song so I decided to do it myself and it actually
out pretty good since this is all by ear. Okay anyway this song is played on a 7-String
and if you dont have one all you have to do is tune your guitar down to drop B and you 
play it just fine alright enjoy :D

(Lead Guitar 7-String or tune your guitar
down to Dropped B)

Intro

     E   E   E  E   E   E  E   E      E  E   E   E  E   E   Q
E||-------------------------------|------------------------------|
B||--8----------8----------8------|------8----------8------------|
G||-----11---------11---------11--|---------11---------11--------|
D||---------12---------12---------|--12---------12---------12----|
A||-------------------------------|------------------------------|
E||-------------------------------|------------------------------|
B||-------------------------------|------------------------------|


  E   E   E  E   E   E  E   E      E  E   E   E  E   E   Q
-------------------------------|------------------------------|
--8----------8----------8------|------8----------8------------|
-----11---------11---------11--|---------11---------11--------|
---------12---------12---------|--12---------12---------12----|
-------------------------------|------------------------------|
-------------------------------|------------------------------|
-------------------------------|------------------------------|


   E   E   E   E   E   E   E   E      E   E   E   E   E   E   Q
----------------------------------|--------------------------------|
--10----------10----------10------|------10----------10------------|
------11----------11----------11--|----------11----------11--------|
----------12----------12----------|--12----------12----------12----|
----------------------------------|--------------------------------|
----------------------------------|--------------------------------|
----------------------------------|--------------------------------|


   E   E    E   E   E    E   E   E     E   E   E  E   E   Q.
------------------------------------|----------------------------|
--10------------8------------8------|--8----------8--------------|
------11-----------11-----------11--|-----11---------11----------|
----------(12)---------(12)---------|---------12---------12------|
------------------------------------|----------------------------|
------------------------------------|----------------------------|
------------------------------------|----------------------------|


  E   E   E  E   E   E  E   E      E  E   E   E  E   E   Q
-------------------------------|------------------------------|
--8----------8----------8------|------8----------8------------|
-----11---------11---------11--|---------11---------11--------|
---------12---------12---------|--12---------12---------12----|
-------------------------------|------------------------------|
-------------------------------|------------------------------|
-------------------------------|------------------------------|


  E   E   E  E   E   E  E   E      E  E   E   E  E   E   Q
-------------------------------|------------------------------|
--8----------8----------8------|------8----------8------------|
-----11---------11---------11--|---------11---------11--------|
---------12---------12---------|--12---------12---------12----|
-------------------------------|------------------------------|
-------------------------------|------------------------------|
-------------------------------|------------------------------|


   E   E   E   E   E   E   E   E      E   E   E   E   E   E   Q
----------------------------------|--------------------------------|
--10----------10----------10------|------10----------10------------|
------11----------11----------11--|----------11----------11--------|
----------12----------12----------|--12----------12----------12----|
----------------------------------|--------------------------------|
----------------------------------|--------------------------------|
----------------------------------|--------------------------------|


   E   E    E   E   E    E   E   E     E   E   E  E   E   Q.
------------------------------------|----------------------------|
--10------------8------------8------|--8----------8--------------|
------11-----------11-----------11--|-----11---------11----------|
----------(12)---------(12)---------|---------12---------12------|
------------------------------------|----------------------------|
------------------------------------|----------------------------|
------------------------------------|----------------------------|

Intro Part 2 (Distortion On)
   Q     E   Q     E   Q        E   Q     E   E   E   Q
----------------------------|------------------------------|
----------------------------|------------------------------|
----------------------------|------------------------------|
--10----10--10----10--10----|--10--10----10--10--10--10----|
--10----10--10----10--10----|--10--10----10--10--10--10----|
---8-----8---8-----8---8----|---8---8-----8---8---8---8----|
----------------------------|------------------------------|


  Q    E  Q    E  Q       E  Q    E  E  E  Q       Q    E  Q    E  Q
-----------------------|------------------------|-----------------------|
-----------------------|------------------------|-----------------------|
-----------------------|------------------------|-----------------------|
--5----5--5----5--5----|--5--5----5--5--5--5----|--7----7--7----7--7----|
--7----7--7----7--7----|--7--7----7--7--7--7----|--5----5--5----5--5----|
--7----7--7----7--7----|--7--7----7--7--7--7----|--5----5--5----5--5----|
--5----5--5----5--5----|--5--5----5--5--5--5----|--3----3--3----3--3----|


  E  Q    E  E  E  Q       Q    E  Q    E  Q       E  Q    E  E  E  Q
------------------------|-----------------------|------------------------|
------------------------|-----------------------|------------------------|
------------------------|-----------------------|------------------------|
--7--7----7--7--7--7----|--7----7--7----7--7----|--7--7----7--7--7--7----|
--5--5----5--5--5--5----|--5----5--5----5--5----|--5--5----5--5--5--5----|
--5--5----5--5--5--5----|--5----5--5----5--5----|--5--5----5--5--5--5----|
--3--3----3--3--3--3----|--3----3--3----3--3----|--3--3----3--3--3--3----|


   Q     E   Q     E   Q        E   Q     E   E   E   Q
----------------------------|------------------------------|
----------------------------|------------------------------|
----------------------------|------------------------------|
--10----10--10----10--10----|--10--10----10--10--10--10----|
--10----10--10----10--10----|--10--10----10--10--10--10----|
---8-----8---8-----8---8----|---8---8-----8---8---8---8----|
----------------------------|------------------------------|


  Q    E  Q    E  Q       E  Q    E  E  E  Q       Q    E  Q    E  Q
-----------------------|------------------------|-----------------------|
-----------------------|------------------------|-----------------------|
-----------------------|------------------------|-----------------------|
--5----5--5----5--5----|--5--5----5--5--5--5----|--7----7--7----7--7----|
--7----7--7----7--7----|--7--7----7--7--7--7----|--5----5--5----5--5----|
--7----7--7----7--7----|--7--7----7--7--7--7----|--5----5--5----5--5----|
--5----5--5----5--5----|--5--5----5--5--5--5----|--3----3--3----3--3----|


  E  Q    E  E  E  Q       Q    E  Q    E  Q       E  Q    E  E  E  Q
------------------------|-----------------------|------------------------|
------------------------|-----------------------|------------------------|
------------------------|-----------------------|------------------------|
--7--7----7--7--7--7----|--7----7--7----7--7----|--7--7----7--7--7--7----|
--5--5----5--5--5--5----|--5----5--5----5--5----|--5--5----5--5--5--5----|
--5--5----5--5--5--5----|--5----5--5----5--5----|--5--5----5--5--5--5----|
--3--3----3--3--3--3----|--3----3--3----3--3----|--3--3----3--3--3--3----|

Verse
  Q    Q    Q    Q       Q    Q    Q    Q       W
----------------------|----------------------|-------------------|
----------------------|----------------------|-------------------|
----------------------|----------------------|-------------------|
----------------------|----------------------|--7----------------|
--7----7--------------|--7----7--------------|--5----------------|
--7----7--------------|--7----7--------------|--5----------------|
--5----5--------------|--5----5--------------|--3----------------|


  W                   Q    Q     E  S   S  S  S  E
-------------------|--------------------------------|
-------------------|--------------------------------|
-------------------|--------------------------------|
--5----------------|--------------------------------|
--5----------------|--7----7----10--9h-10p-9--------|
--3----------------|--7----7-----------------12-10--|
--3----------------|--5----5------------------------|


  Q    Q     E  S   S  S  S  E     W                   W
--------------------------------|-------------------|-------------------|
--------------------------------|-------------------|-------------------|
--------------------------------|-------------------|-------------------|
--------------------------------|--7----------------|--5----------------|
--7----7----10--9h-10p-9--------|--5----------------|--5----------------|
--7----7-----------------12-10--|--5----------------|--3----------------|
--5----5------------------------|--3----------------|--3----------------|


            PM        PM              PM        PM
  Q    Q    E   E  E  E     Q    Q    E   E  E  E     W
-------------------------|-------------------------|-------------------|
-------------------------|-------------------------|-------------------|
-------------------------|-------------------------|-------------------|
-------------------------|-------------------------|--7----------------|
--7----7-------10--9-----|--7----7-------10--9-----|--5----------------|
--7----7-----------------|--7----7-----------------|--5----------------|
--5----5----5---------5--|--5----5----5---------5--|--3----------------|


  W                   Q    Q     E  S   S  S  S  E
-------------------|--------------------------------|
-------------------|--------------------------------|
-------------------|--------------------------------|
--5----------------|--------------------------------|
--5----------------|--7----7----10--9h-10p-9--------|
--3----------------|--7----7-----------------12-10--|
--3----------------|--5----5------------------------|


  Q    Q     E  S   S  S  S  E     W                   W
--------------------------------|-------------------|-------------------|
--------------------------------|-------------------|-------------------|
--------------------------------|-------------------|-------------------|
--------------------------------|--7----------------|--5----------------|
--7----7----10--9h-10p-9--------|--5----------------|--5----------------|
--7----7-----------------12-10--|--5----------------|--3----------------|
--5----5------------------------|--3----------------|--3----------------|

Chorus
   Q     E   Q     E   Q        E   Q     E   E   E   Q
----------------------------|------------------------------|
----------------------------|------------------------------|
----------------------------|------------------------------|
--10----10--10----10--10----|--10--10----10--10--10--10----|
--10----10--10----10--10----|--10--10----10--10--10--10----|
---8-----8---8-----8---8----|---8---8-----8---8---8---8----|
----------------------------|------------------------------|


  Q    E  Q    E  Q       E  Q    E  E  E  Q       Q    E  Q    E  Q
-----------------------|------------------------|-----------------------|
-----------------------|------------------------|-----------------------|
-----------------------|------------------------|-----------------------|
--5----5--5----5--5----|--5--5----5--5--5--5----|--7----7--7----7--7----|
--7----7--7----7--7----|--7--7----7--7--7--7----|--5----5--5----5--5----|
--7----7--7----7--7----|--7--7----7--7--7--7----|--5----5--5----5--5----|
--5----5--5----5--5----|--5--5----5--5--5--5----|--3----3--3----3--3----|


  E  Q    E  E  E  Q       Q    E  Q    E  Q       E  Q    E  E  E  Q
------------------------|-----------------------|------------------------|
------------------------|-----------------------|------------------------|
------------------------|-----------------------|------------------------|
--7--7----7--7--7--7----|--7----7--7----7--7----|--7--7----7--7--7--7----|
--5--5----5--5--5--5----|--5----5--5----5--5----|--5--5----5--5--5--5----|
--5--5----5--5--5--5----|--5----5--5----5--5----|--5--5----5--5--5--5----|
--3--3----3--3--3--3----|--3----3--3----3--3----|--3--3----3--3--3--3----|


   Q     E   Q     E   Q        E   Q     E   E   E   Q
----------------------------|------------------------------|
----------------------------|------------------------------|
----------------------------|------------------------------|
--10----10--10----10--10----|--10--10----10--10--10--10----|
--10----10--10----10--10----|--10--10----10--10--10--10----|
---8-----8---8-----8---8----|---8---8-----8---8---8---8----|
----------------------------|------------------------------|


  Q    E  Q    E  Q       E  Q    E  E  E  Q       Q    E  Q    E  Q
-----------------------|------------------------|-----------------------|
-----------------------|------------------------|-----------------------|
-----------------------|------------------------|-----------------------|
--5----5--5----5--5----|--5--5----5--5--5--5----|--7----7--7----7--7----|
--7----7--7----7--7----|--7--7----7--7--7--7----|--5----5--5----5--5----|
--7----7--7----7--7----|--7--7----7--7--7--7----|--5----5--5----5--5----|
--5----5--5----5--5----|--5--5----5--5--5--5----|--3----3--3----3--3----|


  E  Q    E  E  E  Q       Q    E  Q    E  Q       E  Q    E  E  E  Q
------------------------|-----------------------|------------------------|
------------------------|-----------------------|------------------------|
------------------------|-----------------------|------------------------|
--7--7----7--7--7--7----|--7----7--7----7--7----|--7--7----7--7--7--7----|
--5--5----5--5--5--5----|--5----5--5----5--5----|--5--5----5--5--5--5----|
--5--5----5--5--5--5----|--5----5--5----5--5----|--5--5----5--5--5--5----|
--3--3----3--3--3--3----|--3----3--3----3--3----|--3--3----3--3--3--3----|

Verse 2
  Q    Q    Q    Q       Q    Q    Q    Q       W
----------------------|----------------------|-------------------|
----------------------|----------------------|-------------------|
----------------------|----------------------|-------------------|
----------------------|----------------------|--7----------------|
--7----7--------------|--7----7--------------|--5----------------|
--7----7--------------|--7----7--------------|--5----------------|
--5----5--------------|--5----5--------------|--3----------------|


  W                   Q    Q     E  S   S  S  S  E
-------------------|--------------------------------|
-------------------|--------------------------------|
-------------------|--------------------------------|
--5----------------|--------------------------------|
--5----------------|--7----7----10--9h-10p-9--------|
--3----------------|--7----7-----------------12-10--|
--3----------------|--5----5------------------------|


  Q    Q     E  S   S  S  S  E     W                   W
--------------------------------|-------------------|-------------------|
--------------------------------|-------------------|-------------------|
--------------------------------|-------------------|-------------------|
--------------------------------|--7----------------|--5----------------|
--7----7----10--9h-10p-9--------|--5----------------|--5----------------|
--7----7-----------------12-10--|--5----------------|--3----------------|
--5----5------------------------|--3----------------|--3----------------|


            PM        PM              PM        PM
  Q    Q    E   E  E  E     Q    Q    E   E  E  E     W
-------------------------|-------------------------|-------------------|
-------------------------|-------------------------|-------------------|
-------------------------|-------------------------|-------------------|
-------------------------|-------------------------|--7----------------|
--7----7-------10--9-----|--7----7-------10--9-----|--5----------------|
--7----7-----------------|--7----7-----------------|--5----------------|
--5----5----5---------5--|--5----5----5---------5--|--3----------------|


  W                   Q    Q     E  S   S  S  S  E
-------------------|--------------------------------|
-------------------|--------------------------------|
-------------------|--------------------------------|
--5----------------|--------------------------------|
--5----------------|--7----7----10--9h-10p-9--------|
--3----------------|--7----7-----------------12-10--|
--3----------------|--5----5------------------------|


  Q    Q     E  S   S  S  S  E     W                   W
--------------------------------|-------------------|-------------------|
--------------------------------|-------------------|-------------------|
--------------------------------|-------------------|-------------------|
--------------------------------|--7----------------|--5----------------|
--7----7----10--9h-10p-9--------|--5----------------|--5----------------|
--7----7-----------------12-10--|--5----------------|--3----------------|
--5----5------------------------|--3----------------|--3----------------|

Chorus 2
   Q     E   Q     E   Q        E   Q     E   E   E   Q
----------------------------|------------------------------|
----------------------------|------------------------------|
----------------------------|------------------------------|
--10----10--10----10--10----|--10--10----10--10--10--10----|
--10----10--10----10--10----|--10--10----10--10--10--10----|
---8-----8---8-----8---8----|---8---8-----8---8---8---8----|
----------------------------|------------------------------|


  Q    E  Q    E  Q       E  Q    E  E  E  Q       Q    E  Q    E  Q
-----------------------|------------------------|-----------------------|
-----------------------|------------------------|-----------------------|
-----------------------|------------------------|-----------------------|
--5----5--5----5--5----|--5--5----5--5--5--5----|--7----7--7----7--7----|
--7----7--7----7--7----|--7--7----7--7--7--7----|--5----5--5----5--5----|
--7----7--7----7--7----|--7--7----7--7--7--7----|--5----5--5----5--5----|
--5----5--5----5--5----|--5--5----5--5--5--5----|--3----3--3----3--3----|


  E  Q    E  E  E  Q       Q    E  Q    E  Q       E  Q    E  E  E  Q
------------------------|-----------------------|------------------------|
------------------------|-----------------------|------------------------|
------------------------|-----------------------|------------------------|
--7--7----7--7--7--7----|--7----7--7----7--7----|--7--7----7--7--7--7----|
--5--5----5--5--5--5----|--5----5--5----5--5----|--5--5----5--5--5--5----|
--5--5----5--5--5--5----|--5----5--5----5--5----|--5--5----5--5--5--5----|
--3--3----3--3--3--3----|--3----3--3----3--3----|--3--3----3--3--3--3----|


   Q     E   Q     E   Q        E   Q     E   E   E   Q
----------------------------|------------------------------|
----------------------------|------------------------------|
----------------------------|------------------------------|
--10----10--10----10--10----|--10--10----10--10--10--10----|
--10----10--10----10--10----|--10--10----10--10--10--10----|
---8-----8---8-----8---8----|---8---8-----8---8---8---8----|
----------------------------|------------------------------|


  Q    E  Q    E  Q       E  Q    E  E  E  Q       Q    E  Q    E  Q
-----------------------|------------------------|-----------------------|
-----------------------|------------------------|-----------------------|
-----------------------|------------------------|-----------------------|
--5----5--5----5--5----|--5--5----5--5--5--5----|--7----7--7----7--7----|
--7----7--7----7--7----|--7--7----7--7--7--7----|--5----5--5----5--5----|
--7----7--7----7--7----|--7--7----7--7--7--7----|--5----5--5----5--5----|
--5----5--5----5--5----|--5--5----5--5--5--5----|--3----3--3----3--3----|


  E  Q    E  E  E  Q       Q    E  Q    E  Q       E  Q    E  E  E  Q
------------------------|-----------------------|------------------------|
------------------------|-----------------------|------------------------|
------------------------|-----------------------|------------------------|
--7--7----7--7--7--7----|--7----7--7----7--7----|--7--7----7--7--7--7----|
--5--5----5--5--5--5----|--5----5--5----5--5----|--5--5----5--5--5--5----|
--5--5----5--5--5--5----|--5----5--5----5--5----|--5--5----5--5--5--5----|
--3--3----3--3--3--3----|--3----3--3----3--3----|--3--3----3--3--3--3----|


   Q     E   Q     E   Q        E   Q     E   E   E   Q
----------------------------|------------------------------|
----------------------------|------------------------------|
----------------------------|------------------------------|
--10----10--10----10--10----|--10--10----10--10--10--10----|
--10----10--10----10--10----|--10--10----10--10--10--10----|
---8-----8---8-----8---8----|---8---8-----8---8---8---8----|
----------------------------|------------------------------|


  Q    E  Q    E  Q       E  Q    E  E  E  Q       Q    E  Q    E  Q
-----------------------|------------------------|-----------------------|
-----------------------|------------------------|-----------------------|
-----------------------|------------------------|-----------------------|
--5----5--5----5--5----|--5--5----5--5--5--5----|--7----7--7----7--7----|
--7----7--7----7--7----|--7--7----7--7--7--7----|--5----5--5----5--5----|
--7----7--7----7--7----|--7--7----7--7--7--7----|--5----5--5----5--5----|
--5----5--5----5--5----|--5--5----5--5--5--5----|--3----3--3----3--3----|


  E  Q    E  E  E  Q       Q    E  Q    E  Q       E  Q    E  E  E  Q
------------------------|-----------------------|------------------------|
------------------------|-----------------------|------------------------|
------------------------|-----------------------|------------------------|
--7--7----7--7--7--7----|--7----7--7----7--7----|--7--7----7--7--7--7----|
--5--5----5--5--5--5----|--5----5--5----5--5----|--5--5----5--5--5--5----|
--5--5----5--5--5--5----|--5----5--5----5--5----|--5--5----5--5--5--5----|
--3--3----3--3--3--3----|--3----3--3----3--3----|--3--3----3--3--3--3----|


   Q     E   Q     E   Q        E   Q     E   E   E   Q
----------------------------|------------------------------|
----------------------------|------------------------------|
----------------------------|------------------------------|
--10----10--10----10--10----|--10--10----10--10--10--10----|
--10----10--10----10--10----|--10--10----10--10--10--10----|
---8-----8---8-----8---8----|---8---8-----8---8---8---8----|
----------------------------|------------------------------|


  Q    E  Q    E  Q       E  Q    E  E  E  Q       Q    E  Q    E  Q
-----------------------|------------------------|-----------------------|
-----------------------|------------------------|-----------------------|
-----------------------|------------------------|-----------------------|
--5----5--5----5--5----|--5--5----5--5--5--5----|--7----7--7----7--7----|
--7----7--7----7--7----|--7--7----7--7--7--7----|--5----5--5----5--5----|
--7----7--7----7--7----|--7--7----7--7--7--7----|--5----5--5----5--5----|
--5----5--5----5--5----|--5--5----5--5--5--5----|--3----3--3----3--3----|


  E  Q    E  E  E  Q       Q    E  Q    E  Q       E  Q    E  E  E  Q
------------------------|-----------------------|------------------------|
------------------------|-----------------------|------------------------|
------------------------|-----------------------|------------------------|
--7--7----7--7--7--7----|--7----7--7----7--7----|--7--7----7--7--7--7----|
--5--5----5--5--5--5----|--5----5--5----5--5----|--5--5----5--5--5--5----|
--5--5----5--5--5--5----|--5----5--5----5--5----|--5--5----5--5--5--5----|
--3--3----3--3--3--3----|--3----3--3----3--3----|--3--3----3--3--3--3----|

Breakdown
  PM PM     PM    PM PM       PM PM PM    PM       PM PM PM
  E  E   E  E  E  E  E  E     S  S  E  E  E  E  E  S  S  E
---------------------------|--------------------------------|
---------------------------|--------------------------------|
---------------------------|--------------------------------|
---------------------------|--------------------------------|
---------------------------|--------------------------------|
--------10-----7--------8--|-----------7-----5--7-----------|
--0--0------0-----0--0-----|--0--0--0-----0--------0--0--0--|


  PM PM     PM    PM PM PM       PM    PM PM       PM PM PM
  E  E   E  E  E  S  S  E  E     E  E  E  E  E  E  S  S  E
------------------------------|-----------------------------|
------------------------------|-----------------------------|
------------------------------|-----------------------------|
------------------------------|-----------------------------|
------------------------------|-----------------------------|
--------10-----7-----------8--|-----7--------5--7-----------|
--0--0------0-----0--0--0-----|--0-----0--0--------0--0--0--|


  PM PM     PM    PM PM       PM PM PM    PM       PM PM PM
  E  E   E  E  E  E  E  E     S  S  E  E  E  E  E  S  S  E
---------------------------|--------------------------------|
---------------------------|--------------------------------|
---------------------------|--------------------------------|
---------------------------|--------------------------------|
---------------------------|--------------------------------|
--------10-----7--------8--|-----------7-----5--7-----------|
--0--0------0-----0--0-----|--0--0--0-----0--------0--0--0--|


  PM PM     PM    PM PM PM       PM    PM PM       PM PM PM
  E  E   E  E  E  S  S  E  E     E  E  E  E  E  E  S  S  E
------------------------------|-----------------------------|
------------------------------|-----------------------------|
------------------------------|-----------------------------|
------------------------------|-----------------------------|
------------------------------|-----------------------------|
--------10-----7-----------8--|-----7--------5--7-----------|
--0--0------0-----0--0--0-----|--0-----0--0--------0--0--0--|


  PM PM     PM    PM PM       PM PM PM    PM       PM PM PM
  E  E   E  E  E  E  E  E     S  S  E  E  E  E  E  S  S  E
---------------------------|--------------------------------|
---------------------------|--------------------------------|
---------------------------|--------------------------------|
---------------------------|--------------------------------|
---------------------------|--------------------------------|
--------10-----7--------8--|-----------7-----5--7-----------|
--0--0------0-----0--0-----|--0--0--0-----0--------0--0--0--|


  PM PM     PM    PM PM PM       PM    PM PM       PM PM PM
  E  E   E  E  E  S  S  E  E     E  E  E  E  E  E  S  S  E
------------------------------|-----------------------------|
------------------------------|-----------------------------|
------------------------------|-----------------------------|
------------------------------|-----------------------------|
------------------------------|-----------------------------|
--------10-----7-----------8--|-----7--------5--7-----------|
--0--0------0-----0--0--0-----|--0-----0--0--------0--0--0--|


  PM PM     PM    PM PM       PM PM PM    PM       PM PM PM
  E  E   E  E  E  E  E  E     S  S  E  E  E  E  E  S  S  E
---------------------------|--------------------------------|
---------------------------|--------------------------------|
---------------------------|--------------------------------|
---------------------------|--------------------------------|
---------------------------|--------------------------------|
--------10-----7--------8--|-----------7-----5--7-----------|
--0--0------0-----0--0-----|--0--0--0-----0--------0--0--0--|


  PM PM     PM    PM PM PM       PM    PM PM       PM PM PM
  E  E   E  E  E  S  S  E  E     E  E  E  E  E  E  S  S  E
------------------------------|-----------------------------|
------------------------------|-----------------------------|
------------------------------|-----------------------------|
------------------------------|-----------------------------|
------------------------------|-----------------------------|
--------10-----7-----------8--|-----7--------5--7-----------|
--0--0------0-----0--0--0-----|--0-----0--0--------0--0--0--|

Acoustic Interlude (Same as intro riff with chorus riff backing it only played acousticly)
   W                   W
--------------------|-------------------|-------------------|
--------------------|-------------------|-------------------|
--------------------|-------------------|-------------------|
--10----------------|--L----------------|-------------------|
--10----------------|--L----------------|-------------------|
---8----------------|--L----------------|-------------------|
--------------------|-------------------|-------------------|


-------------------|-------------------|-------------------|-------------------|
-------------------|-------------------|-------------------|-------------------|
-------------------|-------------------|-------------------|-------------------|
-------------------|-------------------|-------------------|-------------------|
-------------------|-------------------|-------------------|-------------------|
-------------------|-------------------|-------------------|-------------------|
-------------------|-------------------|-------------------|-------------------|


-------------------|-------------------|-------------------|-------------------|
-------------------|-------------------|-------------------|-------------------|
-------------------|-------------------|-------------------|-------------------|
-------------------|-------------------|-------------------|-------------------|
-------------------|-------------------|-------------------|-------------------|
-------------------|-------------------|-------------------|-------------------|
-------------------|-------------------|-------------------|-------------------|


-------------------|-------------------|-------------------|-------------------|
-------------------|-------------------|-------------------|-------------------|
-------------------|-------------------|-------------------|-------------------|
-------------------|-------------------|-------------------|-------------------|
-------------------|-------------------|-------------------|-------------------|
-------------------|-------------------|-------------------|-------------------|
-------------------|-------------------|-------------------|-------------------|

                   Outro Chorus
                       Q     E   Q     E   Q        E   Q     E   E   E   Q
-------------------|----------------------------|------------------------------|
-------------------|----------------------------|------------------------------|
-------------------|----------------------------|------------------------------|
-------------------|--10----10--10----10--10----|--10--10----10--10--10--10----|
-------------------|--10----10--10----10--10----|--10--10----10--10--10--10----|
-------------------|---8-----8---8-----8---8----|---8---8-----8---8---8---8----|
-------------------|----------------------------|------------------------------|


  Q    E  Q    E  Q       E  Q    E  E  E  Q       Q    E  Q    E  Q
-----------------------|------------------------|-----------------------|
-----------------------|------------------------|-----------------------|
-----------------------|------------------------|-----------------------|
--5----5--5----5--5----|--5--5----5--5--5--5----|--7----7--7----7--7----|
--7----7--7----7--7----|--7--7----7--7--7--7----|--5----5--5----5--5----|
--7----7--7----7--7----|--7--7----7--7--7--7----|--5----5--5----5--5----|
--5----5--5----5--5----|--5--5----5--5--5--5----|--3----3--3----3--3----|


  E  Q    E  E  E  Q       Q    E  Q    E  Q       E  Q    E  E  E  Q
------------------------|-----------------------|------------------------|
------------------------|-----------------------|------------------------|
------------------------|-----------------------|------------------------|
--7--7----7--7--7--7----|--7----7--7----7--7----|--7--7----7--7--7--7----|
--5--5----5--5--5--5----|--5----5--5----5--5----|--5--5----5--5--5--5----|
--5--5----5--5--5--5----|--5----5--5----5--5----|--5--5----5--5--5--5----|
--3--3----3--3--3--3----|--3----3--3----3--3----|--3--3----3--3--3--3----|


   Q     E   Q     E   Q        E   Q     E   E   E   Q
----------------------------|------------------------------|
----------------------------|------------------------------|
----------------------------|------------------------------|
--10----10--10----10--10----|--10--10----10--10--10--10----|
--10----10--10----10--10----|--10--10----10--10--10--10----|
---8-----8---8-----8---8----|---8---8-----8---8---8---8----|
----------------------------|------------------------------|


  Q    E  Q    E  Q       E  Q    E  E  E  Q       Q    E  Q    E  Q
-----------------------|------------------------|-----------------------|
-----------------------|------------------------|-----------------------|
-----------------------|------------------------|-----------------------|
--5----5--5----5--5----|--5--5----5--5--5--5----|--7----7--7----7--7----|
--7----7--7----7--7----|--7--7----7--7--7--7----|--5----5--5----5--5----|
--7----7--7----7--7----|--7--7----7--7--7--7----|--5----5--5----5--5----|
--5----5--5----5--5----|--5--5----5--5--5--5----|--3----3--3----3--3----|


  E  Q    E  E  E  Q       Q    E  Q    E  Q       E  Q    E  E  E  Q
------------------------|-----------------------|------------------------|
------------------------|-----------------------|------------------------|
------------------------|-----------------------|------------------------|
--7--7----7--7--7--7----|--7----7--7----7--7----|--7--7----7--7--7--7----|
--5--5----5--5--5--5----|--5----5--5----5--5----|--5--5----5--5--5--5----|
--5--5----5--5--5--5----|--5----5--5----5--5----|--5--5----5--5--5--5----|
--3--3----3--3--3--3----|--3----3--3----3--3----|--3--3----3--3--3--3----|


   Q     E   Q     E   Q        E   Q     E   E   E   Q
----------------------------|------------------------------|
----------------------------|------------------------------|
----------------------------|------------------------------|
--10----10--10----10--10----|--10--10----10--10--10--10----|
--10----10--10----10--10----|--10--10----10--10--10--10----|
---8-----8---8-----8---8----|---8---8-----8---8---8---8----|
----------------------------|------------------------------|


  Q    E  Q    E  Q       E  Q    E  E  E  Q       Q    E  Q    E  Q
-----------------------|------------------------|-----------------------|
-----------------------|------------------------|-----------------------|
-----------------------|------------------------|-----------------------|
--5----5--5----5--5----|--5--5----5--5--5--5----|--7----7--7----7--7----|
--7----7--7----7--7----|--7--7----7--7--7--7----|--5----5--5----5--5----|
--7----7--7----7--7----|--7--7----7--7--7--7----|--5----5--5----5--5----|
--5----5--5----5--5----|--5--5----5--5--5--5----|--3----3--3----3--3----|


  E  Q    E  E  E  Q       Q    E  Q    E  Q       E  Q    E  E  E  Q
------------------------|-----------------------|------------------------|
------------------------|-----------------------|------------------------|
------------------------|-----------------------|------------------------|
--7--7----7--7--7--7----|--7----7--7----7--7----|--7--7----7--7--7--7----|
--5--5----5--5--5--5----|--5----5--5----5--5----|--5--5----5--5--5--5----|
--5--5----5--5--5--5----|--5----5--5----5--5----|--5--5----5--5--5--5----|
--3--3----3--3--3--3----|--3----3--3----3--3----|--3--3----3--3--3--3----|


   Q     E   Q     E   Q        E   Q     E   E   E   Q
----------------------------|------------------------------|
----------------------------|------------------------------|
----------------------------|------------------------------|
--10----10--10----10--10----|--10--10----10--10--10--10----|
--10----10--10----10--10----|--10--10----10--10--10--10----|
---8-----8---8-----8---8----|---8---8-----8---8---8---8----|
----------------------------|------------------------------|


  Q    E  Q    E  Q       E  Q    E  E  E  Q       Q    E  Q    E  Q
-----------------------|------------------------|-----------------------|
-----------------------|------------------------|-----------------------|
-----------------------|------------------------|-----------------------|
--5----5--5----5--5----|--5--5----5--5--5--5----|--7----7--7----7--7----|
--7----7--7----7--7----|--7--7----7--7--7--7----|--5----5--5----5--5----|
--7----7--7----7--7----|--7--7----7--7--7--7----|--5----5--5----5--5----|
--5----5--5----5--5----|--5--5----5--5--5--5----|--3----3--3----3--3----|


  E  Q    E  E  E  Q       Q    E  Q    E  Q       E  Q    E  E  E  Q
------------------------|-----------------------|------------------------|
------------------------|-----------------------|------------------------|
------------------------|-----------------------|------------------------|
--7--7----7--7--7--7----|--7----7--7----7--7----|--7--7----7--7--7--7----|
--5--5----5--5--5--5----|--5----5--5----5--5----|--5--5----5--5--5--5----|
--5--5----5--5--5--5----|--5----5--5----5--5----|--5--5----5--5--5--5----|
--3--3----3--3--3--3----|--3----3--3----3--3----|--3--3----3--3--3--3----|


  W                   W                   W
-------------------|-------------------|-------------------|
-------------------|-------------------|-------------------|
-------------------|-------------------|-------------------|
--7----------------|--L----------------|--L----------------|
--5----------------|--L----------------|--L----------------|
--5----------------|--L----------------|--L----------------|
--3----------------|--L----------------|--L----------------|


  W
-------------------||
-------------------||
-------------------||
--L----------------||
--L----------------||
--L----------------||
--L----------------||


Duration Legend
---------------
W - whole
H - half
Q - quarter
E - 8th
S - 16th
T - 32nd
X - 64th
. - note dotted
|-n-|  - n-tuplets


Tablature Legend
----------------
L - tied note
x - dead note
g - grace note
(n) - ghost note
> - accentuded note
NH - natural harmonic
AH - artificial harmonic
TH - tapped harmonic
SH - semi harmonic
PH - pitch harmonic
h - hammer on
p - pull off
b - bend
br - bendRelease
pb - preBend
pbr - preBendRelease
brb - bendReleaseBend
\n/ - tremolo bar dip
\n - tremolo bar dive
-/n - tremolo bar Release up
/n\ - tremolo bar inverted dip
/n - tremolo bar return
-\n - tremolo bar Release down
S - shift slide
s - legato slide
/ -  slide into from below or out of upwards
\ -  slide into from above or out of downwards
~ - vibrato
W - wide vibrato
tr - trill
TP - tremolo picking
T - tapping
S - slap
P - pop
< - fade in
^ - brush up
v - brush down





Comments


Popular In This Moment tabs & chords
Beautiful Tragedy 4 Tabs
Beautiful Tragedy Intro Tabs
Forever Tabs
Forever Intro 1 Tabs
Gunshow Intro Tabs
Prayers 1 Tabs
The Legacy Of Odio Tabs
The Legacy Of Odio Intro Tabs
The Legacy Of Odio Intro 1 Tabs
The Promise Into The Light Ukulele


Song lyrics



↑ Back to top | Tablatures and chords are parodies/interpretations of the original songs. You may use it for private study, scholarship, research or language learning purposes only
© 2014 AZChords.com Contact us | Privacy policy | DMCA | Add/correct tabs | Request tabs | Top 50 tabs