» » »

Inme, Web Tabs (ver.3)

Artists:  A B C D E F G H I J K L M N O P Q R S T U V W X Y Z # 

Web Tabs (ver.3)

Inme Tabs
Rating:
0/5 (0 votes)
Web lessons Tabs too difficult? Try these video lessons and learn fast
                Inme - WEb
Standard Tuning

this is just the intro. more coming soon

INTRO::

 E [----3-3-3-3---------------------------------------------]
 B [--------------------------------------------------------]
 G [--------------------------------------------------------]
 D [--------------------------------------------------------]
 A [-------------0-3-3-0------------------------------------]
 E [-0--------------------3-3-3-1-0-------------------------]

 E [----3-3-3-3---------------------------------------------]
 B [--------------------------------------------------------]
 G [--------------------------------------------------------]
 D [---------------------x-x-x-x----------------------------]
 A [-------------0-3-3-0-x-x-x-x----------------------------]
 E [-0-------------------x-x-x-x----------------------------]

when drums/bass kick in:::

 E [----3-3-3-3---------------------------------------------]
 B [--------------------------------------------------------]
 G [--------------------------------------------------------]   
 D [--------------------------------------------------------]
 A [-2-----------710-10--5-5-5-3----------------------------]<--note these are 10s
 E [-0-----------5-8--8--3-3-3-1----------------------------]  x3

 E [----3-3-3-3---------------------------------------------]
 B [--------------------------------------------------------]
 G [--------------------------------------------------------]   
 D [---------------------x-x-x-x----------------------------]
 A [-2-----------710-10--x-x-x-x----------------------------]
 E [-0-----------5-8--8--x-x-x-x----------------------------]
            
Submit corrections

comments powered by Disqus
↑ Back to top | Inme Tabs for Web. Lyrics for acoustic guitar and electric guitar. Tablatures and chords are parodies/interpretations of the original songs. You may use it for private study, scholarship, research or language learning purposes only