» » »

Web Tabs (ver.2)

Artists:  A B C D E F G H I J K L M N O P Q R S T U V W X Y Z # 

Web Tabs (ver.2)

Inme
Rating:
0/5 (0 votes)

Hard to play? Try these video lessons and learn fast.
                INTRO 

 E [--------------------------------------------------------]
 B [--------------------------------------------------------]
 G [--------------------------------------------------------]
 D [----3-3-3-3---------------------------------------------]
 A [-------------0-3-3-0------------------------------------]
 E [-0--------------------3-3-3-1-0-------------------------]

 E [--------------------------------------------------------]
 B [--------------------------------------------------------]
 G [--------------------------------------------------------]
 D [----3-3-3-3----------x-x-x-x----------------------------]
 A [-------------0-3-3-0-x-x-x-x----------------------------]
 E [---------------------x-x-x-x----------------------------]

 E [--------------------------------------------------------]\
 B [--------------------------------------------------------] \
 G [--------------------------------------------------------]  \x3
 D [----3-3-3-3---------------------------------------------]  /
 A [-------------0-3-3------------------------------------- ] /
 E [-0-----------------0-3-3-3-1----------------------------]/

 E [--------------------------------------------------------]
 B [--------------------------------------------------------]
 G [--------------------------------------------------------]
 D [----3-3-3-3----------x-x-x-x----------------------------]
 A [-------------0-3-3---x-x-x-x----------------------------]
 E [-0-----------------0-x-x-x-x----------------------------]

This is my 1st attempt at a tab, take it easy on me ppl
            
Hard to play? Try these video lessons and learn fast. | Correct




comments powered by Disqus
↑ Back to top | Tablatures and chords are parodies/interpretations of the original songs. You may use it for private study, scholarship, research or language learning purposes only