>
 >
Lava Twilight 1

Lava Twilight 1 Guitar Tabs

Inme - Lava Twilight 1 chords, tabs, tablatures, lyrics

Guitar lessons | Add/correct | Request | Top 50 tabs Artists:  A B C D E F G H I J K L M N O P Q R S T U V W X Y Z 0-9

Lava Twilight 1 Guitar Tabs – Inme

CD, Sheet music, Poster

Do you like Lava Twilight 1? Share with your friends now
Drum TabsTabsTabs v2Tabs v3
Lava Twilight by InMe
(this is the demo version, i don't like the album one)
tab version 2


Drop D Tuning (6th string tuned down
  one tone to sound like 4th string)

everything's in the right order, just
play through, and follow instructions

the timing is included

INTRO:
intro part 1:   (with distortion)
E|--------------------------------|--------------------------------|
B|--------------------------------|--------------------------------|
G|--------------------------------|--------------------------------|
d|3-------------------------------|4-------------------------------|
A|4-------------------------------|5-------------------------------|
D|4-------------------------------|5-------------------------------|
  1 . + . 2 . + . 3 . + . 4 . + .                 x3

intro part 1 ending:
|--------------------------------|--------------------------------|
|--------------------------------|--------------------------------|
|--------------------------------|--------------------------------|
|3-------------------------------|--------------------------------|
|4-------------------------------|--------------------------------|
|4---------------(3)b4r3-----4---|5-------------------------------|
                 |
             (pre-bend)


intro part 2: pause
  - don't play anything, silly



intro part 3  (very quiet with delay and chorus)
|--------------------------------|--------------------------------|
|--------------------------------|--------------------------------|
|6----(not first time)-----------|--------------------------6-6-6-|
|7-------------------------------|----------------7-7-7-7-7-7-7-7-|
|--------------------------------|0-0-0-0-0-0-0-0-0-0-0-0-0-------|
|--------------------------------|0-0-0-0-0-0-0-0-----------------|
                                                   x4

intro part 4:
  - verse riff 1    x2       (below)



VERSE:
riff 1     (with chorus)
|--------------------------------|--------------------------------|
|--------------------------------|--------------------------------|
|--------------------------------|--------6b7r6-------------------|
|--------------------------------|--------------------------------|
|----9-------9-------9-------0---|----5---------------0-------0---|
|9-------11------9-------11------|5---------------0-------11------|
                                                   x4

riff 2     
|--------------------------------|--------------------------------|
|--------------------------------|--------------------------------|
|--------------------------------|--------------------------------|
|--------------------------------|--------------------------------|
|----9-------9-------9-------0---|----5---4---0-----12------12----|
|9-------11------9-------11------|5---------------12--11--12--11--|
                                                   x3

riff 2 ending (just before chorus) 
|--------------------------------|--------------------------------|
|--------------------------------|--------------------------------|
|--------------------------------|--------------------------------|
|--------------------------------<5-5-5-5-5-5-5-5-5-5-5-5-5-5-5-5>|
|----9-------9-------9-------0---<5-5-5-5-5-5-5-5-5-5-5-5-5-5-5-5>|
|9-------11------9-------11------<5-5-5-5-5-5-5-5-5-5-5-5-5-5-5-5>|





CHORUS       (distortion)
|--------------------------------|--------------------------------|
|--------------------------------|--------------------------------|
|4---4-4-4---4-4-4-4-4-4-4(4)4-4-|--------6b7r6b7r6---------------|
|4---4-4-4---4-4-4-4-4-4-4(4)4-4-|5---5-5-----------0-0-0-0(0)0-0-|
|2---2-2-2---2-2-2-2-2-2-2(2)2-2-|5---5-5-----------0-0-0-0(0)0-0-|
|4---4-4-4---4-4-4-4-4-4-4(4)4-4-|5---5-5-----------0-0-0-0(0)0-0-|
                           |                                |
                        optional                         optional
                                                   x4



VERSE:       (same as first verse)
  - riff 1          x4,
  - riff 2          x3,
  - riff 2 ending   x1





CHORUS:
  - chorus pattern  x4





INTERLUDE:      (with distortion)
    e = 11
    m = mute by taking pressure off of fret-hand
|--------------------------------|--------------------------------|
|--------------------------------|--------------------------------|
|--------------------------------|--------------------------------|
|e-e-e-e-e-m-e-e-m-e-e-m-e-e-m-e-|e-1212m-0-m-0-0-0-3-3-3-3-2-0---|
|e-e-e-e-e-m-e-e-m-e-e-m-e-e-m-e-|e-1212m-0-m-0-0-0-3-3-3-3-2-0---|
|e-e-e-e-e-m-e-e-m-e-e-m-e-e-m-e-|e-1212m-0-m-0-0-0-3-3-3-3-2-0---|


|--------------------------------|--------------------------------|
|--------------------------------|--------------------------------|
|--------------------------------|--------------------------------|
|e-e-e-e-e-m-e-e-m-e-e-m-e-9-9-e-|e-1212m-0-m-0-0-0-3-3-3-3-2-0---|
|e-e-e-e-e-m-e-e-m-e-e-m-e-9-9-e-|e-1212m-0-m-0-0-0-3-3-3-3-2-0---|
|e-e-e-e-e-m-e-e-m-e-e-m-e-9-9-e-|e-1212m-0-m-0-0-0-3-3-3-3-2-0---|

                              this block of 4 bars x2






SOLO PART:        (with distortion)
rhythm guitar plays an altered chorus pattern:...
|--------------------------------|--------------------------------|
|--------------------------------|--------------------------------|
|4---4-4-4---4-4-4-4-4-4-4(4)4-4-|--------------------------------|
|4---4-4-4---4-4-4-4-4-4-4(4)4-4-|5---5-5-5---5-5-0-0-0-0-0(0)0-0-|
|2---2-2-2---2-2-2-2-2-2-2(2)2-2-|5---5-5-5---5-5-0-0-0-0-0(0)0-0-|
|4---4-4-4---4-4-4-4-4-4-4(4)4-4-|5---5-5-5---5-5-0-0-0-0-0(0)0-0-|
                           |                                |
                        optional                         optional
                                                   x4

...while lead guitar plays the solo (with distortion):
      e = 11
|--------------------------------|--------------------------------|
|--------------------------------|--------------------------------|
|e---e-e-e\9-9-9\7-7-7---7\6-6-6-|--------------------------------|
|--------------------------------|--------------------------------|
|--------------------------------|---<5>-<9>-<5>-----<5>-<9>-<5>--|
|--------------------------------<5>-------------<5>--------------|


|--------------------------------|--------------------------------|
|--------------------------------|--------------------------------|
|e---e-e-e\9-9-9\7-7-7---7\6-6-6-|--------------------------------|
|--------------------------------|--------------------------------|
|--------------------------------|---<5>-<9>-<5>-<9>-<5>-<5>-<9>--|
|--------------------------------<5>------------------------------|

                              this block of 4 bars x2





QUIET BIT:   (with chorus)
|--------------------------------|--------------------------------|
<7>------------------------------|--------------------------------|
|--------------------------------|--------------------------------|
|--------------------------------|--------------------------------|
|--------------------------------|------------------12------12----|
|--------------------------------|----------------12--11--12--11--|

|--------------------------------|--------------------------------|
|--------------------------------|--------------------------------|
|--------------------------------|--------------------------------|
|--------------------------------|--------------------------------|
|--------------------------------|--------------------------------|
|--------------------------------|--------------------------------|

|--------------------------------|--------------------------------|
|--------------------------------|--------------------------------|
|--------------------------------|--------------------------------|
|--------------------------------|--------------------------------|
|--------------------------------|------------------12------12----|
|--------------------------------|----------------12--11--12--11--|

|--------------------------------|--------------------------------|
|--------------------------------|--------------------------------|
|--------------------------------|--------------------------------|
|--------------------------------<5-5-5-5-5-5-5-5-5-5-5-5-5-5-5-5>|
|--------------------------------<5-5-5-5-5-5-5-5-5-5-5-5-5-5-5-5>|
|--------------------------------<5-5-5-5-5-5-5-5-5-5-5-5-5-5-5-5>|




CHORUS:
  - chorus pattern  x4




INTERLUDE:
  - interlude block x2




END:      (distortion)
|--------------------------------||
|--------------------------------||
|4-------------------------------||
|4-------------------------------||
|2-------------------------------||
|4-------------------------------||





Comments


Popular Inme tabs & chords
Faster The Chase 1 Bass Tabs
Mosaic 2 Bass Tabs
Myths And Photographs Bass Tabs
Single Of The Weak Chords
Lava Twilight 2 Tabs
May (As Well Kiss Me) Tabs
Natural 2 Tabs
Single Of The Weak Tabs
Spur Of Moment Tabs
Single Of The Weak Ukulele


Song lyrics



↑ Back to top | Tablatures and chords are parodies/interpretations of the original songs. You may use it for private study, scholarship, research or language learning purposes only
© 2014 AZChords.com Contact us | Privacy policy | DMCA | Add/correct tabs | Request tabs | Top 50 tabs