>
 >
Lava Twilight

Lava Twilight Guitar Tabs

Inme - Lava Twilight chords, tabs, tablatures, lyrics

Guitar lessons | Add/correct | Request | Top 50 tabs Artists:  A B C D E F G H I J K L M N O P Q R S T U V W X Y Z 0-9

Lava Twilight Guitar Tabs – Inme

CD, Sheet music, Poster

Do you like Lava Twilight? Share with your friends now
Drum TabsTabsTabs v2Tabs v3
Tuning:- DADGBE
^ = bend up
. = palm Muted
/ = Slide up
h = harmonic
 = let ring



INTRO - PART 1

E|---------------------------------------------------|
B|---------------------------------------------------|
G|---------------------------------------------------|
D|--3>>-----------4>>------------3>>-----------4>>---|
A|--4>>-----------5>>------------4>>-----------5>>---|
D|--4>>-----------5>>------------4>>-----------5>>---|


E|---------------------------------------------------|
B|---------------------------------------------------|
G|---------------------------------------------------|
D|--x3>>----------4>>------------xx3-----------------|
A|--x4>>----------5>>------------xx4-----------------|
D|--x4>>----------5>>------------xx4-----3b3-4---5>>-|


E|----------------------------------------------------------|
B|----------------------------------------------------------|
G|----------------------------------------------------------|
D|----------------------------------------------------------|
A|----------------------------------------------------------|
D|-4---4-4-4---4-4--4-4--4---4-4-4-5-5-5-5--5-5--0-0-7-0-2--|


E|----------------------------------------------------------|
B|----------------------------------------------------------|
G|----------------------------------------------------------|
D|----------------------------------------------------------|
A|----------------------------------------------------------|
D|-0/4-4-4-4---4-4--4-4-4-4---4-4--5-5-5-5--5-5--0-0-0-0-0-0|


E|----------------------------------------------------------|
B|----------------------------------------------------------|
G|----------------------------------------------------------|
D|----------------------------------------------------------|
A|----------------------------------------------------------|
D|-0/4-4-4-4---4-4--4-4-4-4---4-4--5-5-5-5--5-5--0-0-0-0-0-0|


E|----------------------------------------------------------|
B|----------------------------------------------------------|
G|----------------------------------------------------------|
D|----------------------------------------------------------|
A|----------------------------------------------------------|
D|-0/4-4-4-4---4-4--4-4-4-4---4-4--5-5-5-5--5-5--0-0-0-0-0-0|

VERSE 1


E|---------------------------------------------------|
B|---------------------------------------------------|
G|------------------------6b6b6----------------------|
D|----4---4---4--------------------------------------|
A|--2---4---2---4--0----5------------0-4-0-----------|
D|--------------------5------------0-----------------|



E|---------------------------------------------------|
B|---------------------------------------------------|
G|------------------------6b6b6----------------------|
D|----4---4---4--------------------------------------|
A|--2---4---2---4--0----5------------0-4-0-----------|
D|--------------------5------------0-----------------|


             take away your sorrows
E|---------------------------------------------------|
B|---------------------------------------------------|
G|------------------------6b6b6----------------------|
D|----4---4---4--------------------------------------|
A|--2---4---2---4--0----5------------0-4-0-----------|
D|--------------------5------------0-----------------|

              Bringing back my pain
E|---------------------------------------------------|
B|---------------------------------------------------|
G|------------------------6b6b6----------------------|
D|----4---4---4--------------------------------------|
A|--2---4---2---4--0----5------------0-4-0-----------|
D|--------------------5------------0-----------------|

             If you say you need me, 
E|---------------------------------------------------|
B|---------------------------------------------------|
G|------------------------6b6b6----------------------|
D|----4---4---4--------------------------------------|
A|--2---4---2---4--0----5------------0-4-0-----------|
D|--------------------5------------0-----------------|

             then i'll take all the blame
E|---------------------------------------------------|
B|---------------------------------------------------|
G|------------------------6b6b6----------------------|
D|----4---4---4--------------------------------------|
A|--2---4---2---4--0----5------------0-4-0-----------|
D|--------------------5------------0-----------------|

               this is all i've    ever 
E|---------------------------------------------------|
B|---------------------------------------------------|
G|--------------0------------------------------------|
D|----4---4---4--------------------------------------|
A|--2---4---2-----------0-4-0------4---0-0---4-------|
D|--------------------5---------0--------------------|

   been,   cold and alone, lava twilight
E|---------------------------------------------------|
B|---------------------------------------------------|
G|---------------0-----------------------------------|
D|----4---4---4--------------------------------------|
A|--2---4---2-----------0-4-0------4---0-0---4-------|
D|--------------------5---------0--------------------|

               this is all i've    ever 
E|---------------------------------------------------|
B|---------------------------------------------------|
G|--------------0------------------------------------|
D|----4---4---4--------------------------------------|
A|--2---4---2-----------0-4-0------4---0-0---4-------|
D|--------------------5---------0--------------------|

   been,   cold and alone, lava twilight
E|----------------------------------------------------|
B|----------------------------------------------------|
G|---------------0----5.5.5.5.5.5.5.5.5.5.5.5.5.5.5.5.|
D|----4---4---4-------3.3.3.3.3.3.3.3.3.3.3.3.3.3.3.3.|
A|--2---4---2-----------------------------------------|
D|----------------------------------------------------|

CHORUS 1

           Lava twilight,                  fairy of ice
E|---------------------------------------------------------|
B|---------------------------------------------------------|
G|-------------------------------------6b6b6b6-------------|
D|9--9-9-9---9-9-9-9--9-9-9-9------------------------------|
A|9--9-9-9---9-9-9-9--9-9-9-9------------------------------|
D|9--9-9-9---9-9-9-9--9-9-9-9---5--5-5---------0-0--0--0-0-|


           greedy spirit,                  nothing is right
E|---------------------------------------------------------|
B|---------------------------------------------------------|
G|-------------------------------------6b6b6b6-------------|
D|9--9-9-9---9-9-9-9--9-9-9-9------------------------------|
A|9--9-9-9---9-9-9-9--9-9-9-9------------------------------|
D|9--9-9-9---9-9-9-9--9-9-9-9---5--5-5---------0-0--0--0-0-|


           Lava twilight,                     fairy of ice
E|---------------------------------------------------------|
B|---------------------------------------------------------|
G|-------------------------------------6b6b6b6-------------|
D|9--9-9-9---9-9-9-9--9-9-9-9------------------------------|
A|9--9-9-9---9-9-9-9--9-9-9-9------------------------------|
D|9--9-9-9---9-9-9-9--9-9-9-9---5--5-5---------0-0--0--0-0-|


           greedy spirit,                       nothing is 
E|---------------------------------------------------------|
B|---------------------------------------------------------|
G|-------------------------------------6b6b6b6-------------|
D|9--9-9-9---9-9-9-9--9-9-9-9------------------------------|
A|9--9-9-9---9-9-9-9--9-9-9-9------------------------------|
D|9--9-9-9---9-9-9-9--9-9-9-9---5--5-5---------0-0--0--0-0-|


VERSE 2

             Break away your shadows
E|---------------------------------------------------|
B|---------------------------------------------------|
G|------------------------6b6b6----------------------|
D|----4---4---4--------------------------------------|
A|--2---4---2---4--0----5------------0-4-0-----------|
D|--------------------5------------0-----------------|

              Show your face to me
E|---------------------------------------------------|
B|---------------------------------------------------|
G|------------------------6b6b6----------------------|
D|----4---4---4--------------------------------------|
A|--2---4---2---4--0----5------------0-4-0-----------|
D|--------------------5------------0-----------------|

             lose the rush around my veins, 
E|---------------------------------------------------|
B|---------------------------------------------------|
G|------------------------6b6b6----------------------|
D|----4---4---4--------------------------------------|
A|--2---4---2---4--0----5------------0-4-0-----------|
D|--------------------5------------0-----------------|

             as you leave my life
E|---------------------------------------------------|
B|---------------------------------------------------|
G|------------------------6b6b6----------------------|
D|----4---4---4--------------------------------------|
A|--2---4---2---4--0----5------------0-4-0-----------|
D|--------------------5------------0-----------------|

               this is all i've    ever 
E|---------------------------------------------------|
B|---------------------------------------------------|
G|---------------0-----------------------------------|
D|----4---4---4--------------------------------------|
A|--2---4---2-----------0-4-0------4---0-0---4-------|
D|--------------------5---------0--------------------|

   been,   cold and alone, lava twilight
E|---------------------------------------------------|
B|---------------------------------------------------|
G|---------------0-----------------------------------|
D|----4---4---4--------------------------------------|
A|--2---4---2-----------0-4-0------4---0-0---4-------|
D|--------------------5---------0--------------------|

               this is all i've    ever 
E|---------------------------------------------------|
B|---------------------------------------------------|
G|--------------0------------------------------------|
D|----4---4---4--------------------------------------|
A|--2---4---2-----------0-4-0------4---0-0---4-------|
D|--------------------5---------0--------------------|

   been,   cold and alone, lava twilight
E|----------------------------------------------------|
B|----------------------------------------------------|
G|---------------0----7.7.7.7.7.7.7.7.7.7.7.7.7.7.7.7.|
D|----4---4---4-------5.5.5.5.5.5.5.5.5.5.5.5.5.5.5.5.|
A|--2---4---2-----------------------------------------|
D|----------------------------------------------------|

CHORUS 2

           Lava twilight,                  fairy of ice
E|---------------------------------------------------------|
B|---------------------------------------------------------|
G|-------------------------------------6b6b6b6-------------|
D|9--9-9-9---9-9-9-9--9-9-9-9------------------------------|
A|9--9-9-9---9-9-9-9--9-9-9-9------------------------------|
D|9--9-9-9---9-9-9-9--9-9-9-9---5--5-5---------0-0--0--0-0-|


           greedy spirit,                  nothing is right
E|---------------------------------------------------------|
B|---------------------------------------------------------|
G|-------------------------------------6b6b6b6-------------|
D|9--9-9-9---9-9-9-9--9-9-9-9------------------------------|
A|9--9-9-9---9-9-9-9--9-9-9-9------------------------------|
D|9--9-9-9---9-9-9-9--9-9-9-9---5--5-5---------0-0--0--0-0-|


           Lava twilight,                     fairy of ice
E|---------------------------------------------------------|
B|---------------------------------------------------------|
G|-------------------------------------6b6b6b6-------------|
D|9--9-9-9---9-9-9-9--9-9-9-9------------------------------|
A|9--9-9-9---9-9-9-9--9-9-9-9------------------------------|
D|9--9-9-9---9-9-9-9--9-9-9-9---5--5-5---------0-0--0--0-0-|


           greedy spirit,                       nothing is 
E|---------------------------------------------------------|
B|---------------------------------------------------------|
G|-------------------------------------6b6b6b6-------------|
D|9--9-9-9---9-9-9-9--9-9-9-9------------------------------|
A|9--9-9-9---9-9-9-9--9-9-9-9------------------------------|
D|9--9-9-9---9-9-9-9--9-9-9-9---5--5-5---------0-0--0--0-0-|

BRIDGE

  RIIGHT!
E|-------------------------------------------------------------|
B|-------------------------------------------------------------|
G|-6-6-6-6-6---6-6---6-6---6-6--6-6/7-7-7----------------------|
D|-6-6-6-6-6---6-6---6-6---6-6--6-6/7-7-7---0-0---3-3-3-3-2-0--|
A|-4-4-4-4-4---4-4---4-4---4-4--4-4/5-5-5---0-0---3-3-3-3-2-0--|
D|------------------------------------0-0---0-0---3-3-3-3-2-0--|


E|--------------------------------------------------------------------|
B|--------------------------------------------------------------------|
G|-6-6-6-6-6---6-6---6-6---6-4-4-6-6/7-7-7----------------------------|
D|-6-6-6-6-6---6-6---6-6---6-4-4-6-6/7-7-7---0-0----------------------|
A|-4-4-4-4-4---4-4---4-4---4-2-2-4-4/5-5-5---0-0----------------------|
D|-------------------------------------0-0---0-0--0-15-15-15-15-14-12-|

E|-------------------------------------------------------------|
B|-------------------------------------------------------------|
G|-6-6-6-6-6---6-6---6-6---6-6--6-6/7-7-7----------------------|
D|-6-6-6-6-6---6-6---6-6---6-6--6-6/7-7-7---0-0---3-3-3-3-2-0--|
A|-4-4-4-4-4---4-4---4-4---4-4--4-4/5-5-5---0-0---3-3-3-3-2-0--|
D|------------------------------------0-0---0-0---3-3-3-3-2-0--|


E|--------------------------------------------------------------|
B|--------------------------------------------------------------|
G|-6-6-6-6-6---6-6---6-6---6-4-4-6-6/7-7-7----------------------|
D|-6-6-6-6-6---6-6---6-6---6-4-4-6-6/7-7-7---0-0---3-3-3-3-2-0--|
A|-4-4-4-4-4---4-4---4-4---4-2-2-4-4/5-5-5---0-0---3-3-3-3-2-0--|
D|-------------------------------------0-0---0-0---3-3-3-3-2-0--|


E|-----------------------------------------------------------------|
B|-11-11-11-11-11/9-9-9-9/7-7-7-7/6-6-6----------------------------|
G|-----------------------------------------------------------------|
D|---------------------------------------------------5h------------|
A|------------------------------------------5h-4h-5h----4h-5h-4h-5h|
D|---------------------------------------5h------------------------|


E|---------------------------------------------------------------|
B|-11-11-11-11-11/9-9-9-9/7-7-7-7/6-6-6--------------------------|
G|---------------------------------------------------------------|
D|---------------------------------------------------------------|
A|------------------------------------------5h-4h-5h-4h-5h-5h-4h-|
D|---------------------------------------5h----------------------|


E|-----------------------------------------------------------------|
B|-11-11-11-11-11/9-9-9-9/7-7-7-7/6-6-6----------------------------|
G|-----------------------------------------------------------------|
D|---------------------------------------------------5h------------|
A|------------------------------------------5h-4h-5h----4h-5h-4h-5h|
D|---------------------------------------5h------------------------|


E|---------------------------------------------------------------|
B|-11-11-11-11-11/9-9-9-9/7-7-7-7/6-6-6--------------------------|
G|---------------------------------------------------------------|
D|---------------------------------------------------------------|
A|------------------------------------------5h-4h-5h-4h-5h-5h-4h-|
D|---------------------------------------5h----------------------|

  
VERSE(PLAYED BY BASS, guitar part in brackets) 3
        
     This is all i've ever been,cold and alone lava twilight
E|----------------------------------------------------------|
B|----------------------------------------------------------|
G|-------------------(6--6)---------------------------------|
D|----------------------------------------------------------|
A|------4-5-4--------4-5-7-------4-5-4---------------4-5-4--|
D|--4---------5-------------4----------5-------------------4|

     This is all i've ever been,cold and alone lava twilight
E|---------------------------------------------------------------------------------|
B|---------------------------------------------------------------------------------|
G|-------------------(6--6)---------------------(7.7.7.7.7.7.7.7.7.7.7.7.7.7.7.7.)-|
D|-------------------------------4--------------(5.5.5.5.5.5.5.5.5.5.5.5.5.5.5.5.)-|
A|------4-5-4--------4-5-4---------5-4-2-------------------------------------------|
D|--4---------5-------------4------------4----5------------------------------------|


CHORUS 3

           Lava twilight,                  fairy of ice
E|---------------------------------------------------------|
B|---------------------------------------------------------|
G|-------------------------------------6b6b6b6-------------|
D|9--9-9-9---9-9-9-9--9-9-9-9------------------------------|
A|9--9-9-9---9-9-9-9--9-9-9-9------------------------------|
D|9--9-9-9---9-9-9-9--9-9-9-9---5--5-5---------0-0--0--0-0-|


           greedy spirit,                  nothing is right
E|---------------------------------------------------------|
B|---------------------------------------------------------|
G|-------------------------------------6b6b6b6-------------|
D|9--9-9-9---9-9-9-9--9-9-9-9------------------------------|
A|9--9-9-9---9-9-9-9--9-9-9-9------------------------------|
D|9--9-9-9---9-9-9-9--9-9-9-9---5--5-5---------0-0--0--0-0-|


           Lava twilight,                     fairy of ice
E|---------------------------------------------------------|
B|---------------------------------------------------------|
G|-------------------------------------6b6b6b6-------------|
D|9--9-9-9---9-9-9-9--9-9-9-9------------------------------|
A|9--9-9-9---9-9-9-9--9-9-9-9------------------------------|
D|9--9-9-9---9-9-9-9--9-9-9-9---5--5-5---------0-0--0--0-0-|


           greedy spirit,                       nothing is 
E|---------------------------------------------------------|
B|---------------------------------------------------------|
G|-------------------------------------6b6b6b6-------------|
D|9--9-9-9---9-9-9-9--9-9-9-9------------------------------|
A|9--9-9-9---9-9-9-9--9-9-9-9------------------------------|
D|9--9-9-9---9-9-9-9--9-9-9-9---5--5-5---------0-0--0--0-0-|

BRIDGE 2

  RIGHT!
E|-------------------------------------------------------------|
B|-------------------------------------------------------------|
G|-6-6-6-6-6---6-6---6-6---6-6--6-6/7-7-7----------------------|
D|-6-6-6-6-6---6-6---6-6---6-6--6-6/4-4-4---0-0---3-3-3-3-2-0--|
A|-4-4-4-4-4---4-4---4-4---4-4--4-4/5-5-5---0-0---3-3-3-3-2-0--|
D|------------------------------------0-0---0-0---3-3-3-3-2-0--|


E|--------------------------------------------------------------------|
B|--------------------------------------------------------------------|
G|-6-6-6-6-6---6-6---6-6---6-4-4-6-6/7-7-7----------------------------|
D|-6-6-6-6-6---6-6---6-6---6-4-4-6-6/4-4-4---0-0----------------------|
A|-4-4-4-4-4---4-4---4-4---4-2-2-4-4/5-5-5---0-0----------------------|
D|-------------------------------------0-0---0-0--0-15-15-15-15-14-12-|
                                                                         
                                                                          
E|-------------------------------------------------------------|        
B|-------------------------------------------------------------|        
G|-6-6-6-6-6---6-6---6-6---6-6--6-6/7-7-7----------------------|        
D|-6-6-6-6-6---6-6---6-6---6-6--6-6/4-4-4---0-0---3-3-3-3-2-0--|        
A|-4-4-4-4-4---4-4---4-4---4-4--4-4/5-5-5---0-0---3-3-3-3-2-0--|        
D|------------------------------------0-0---0-0---3-3-3-3-2-0--|    *   

E|-----------------------------------------------------------------|    
B|-----------------------------------------------------------------|    
G|-6-6-6-6-6---6-6---6-6---6-4-4-6-6/7-7-7-------------------------|    
D|-6-6-6-6-6---6-6---6-6---6-4-4-6-6/7-7-7---0-0---3-3-3-3-2-0-11>>|    
A|-4-4-4-4-4---4-4---4-4---4-2-2-4-4/4-4-4---0-0---3-3-3-3-2-0-9>>-|    
D|-------------------------------------0-0---0-0---3-3-3-3-2-0-9>>-|    *





Comments


Popular Inme tabs & chords
Crushed Like Fruit Bass Tabs
Faster The Chase 1 Bass Tabs
Mosaic 2 Bass Tabs
Angels With Snipers 1 Tabs
Creepcover Tabs
Daydream Anonymous Tabs
Firefly Tabs
Miracle 2 Tabs
So You Know 2 Tabs
Underdose Tabs


Song lyrics



↑ Back to top | Tablatures and chords are parodies/interpretations of the original songs. You may use it for private study, scholarship, research or language learning purposes only
© 2014 AZChords.com Contact us | Privacy policy | DMCA | Add/correct tabs | Request tabs | Top 50 tabs