>
 >
Just A Glimpse

Just A Glimpse Bass Tabs

Inme - Just A Glimpse chords, tabs, tablatures, lyrics

Guitar lessons | Add/correct | Request | Top 50 tabs Artists:  A B C D E F G H I J K L M N O P Q R S T U V W X Y Z 0-9

Just A Glimpse Bass Tabs – Inme

CD, Sheet music, Poster

Do you like Just A Glimpse? Share with your friends now
Bass TabsBass Tabs v2TabsTabs v2
Intro
G|----------------------------------------|
D|----------------------------------------|
A|5-555-5-5-5-555-5-5-1-111-1-1-3-333-3-3-|
D|----------------------------------------|

G|-----------------------------------------|
D|-----------------------------------------|
A|5-555-5-5-5-555-5-5-8-888-8-8-1-111-1-1--|
D|-----------------------------------------|

G|------------------------------------------|
D|------------------------------------------|
A|5-555-5-1/5-555-5-1/5-1-111-1-1-3-333-3-3-|
D|------------------------------------------|

G|------------------------------------------|
D|------------------------------------------|
A|5-555-5-1/5-555-5-1/5-8-888-8-8-1-111-1-1-|
D|------------------------------------------|


Verse 1

G|--------------------------------------------------------------|
D|--------------------------------------------------------------|
A|3h5-5-3h5-5-3h5-3h5-5-3h5-3h5-0h1-1-0h1-1-0h1-1h3-3-1h3-3-1h3-|
D|--------------------------------------------------------------|


G|--------------------------------------------------------------|
D|--------------------------------------------------------------|
A|3h5-5-3h5-5-3h5-3h5-5-3h5-3h5-0h1-1-0h1-1-0h1-1h3-3-1h3-3-1h3-|
D|--------------------------------------------------------------|

G|--------------------------------------------------------|
D|--------------------------------------------------------|
A|5-------------5-------------1-------------3-------------|
D|--0-3-5-3-0-3---0-3-5-3-0-3---0-3-5-3-0-3---0-3-5-3-0-3-|

G|------------------------------------------|
D|------------------------------------------|  (small guitar break)
A|5-------------5-------------1-------------|
D|--0-3-5-3-0-3---0-3-5-3-0-3---0-3-5-3-0-3-|


Chorus

G|----------------------------------------------------------------|
D|----------------------------------------------------------------|
A|----------------------------------------------------------------|
D|8-8-8-8-8-8-8-8-5-5-5-5-5-5-3/5/7-7-7-7-7-7-7-7-7-7-7-7-7-7-7-7-|

G|------------------------------------------------|
D|------------------------------------------------|
A|--------------------------------5-5-5-5-5-5-5-5-|  (small guitar break)
D|8-8-8-8-8-8-8-8-5-5-5-5-5-5-5-5-----------------|

G|----------------------------------------------------------------|
D|----------------------------------------------------------------|
A|----------------------------------------------------------------|
D|8-8-8-8-8-8-8-8-5-5-5-5-5-5-3/5/7-7-7-7-7-7-7-7-7-7-7-7-7-7-7-7-|

G|------------------------------------------------|
D|------------------------------------------------|
A|--------------------------------5-5-5-5-5-5-5-5-|
D|8-8-8-8-8-8-8-8-5-5-5-5-5-5-5-5-----------------|


Verse 2

G|--------------------------------------------------------|
D|--------------------------------------------------------|
A|5-------------5-------------1-------------3-------------|
D|--0-3-5-3-0-3---0-3-5-3-0-3---0-3-5-3-0-3---0-3-5-3-0-3-|

G|------------------------------------------|
D|------------------------------------------|  (anotha small guitar break)
A|5-------------5-------------8-------------|
D|--0-3-5-3-0-3---0-3-5-3-0-3---0-3-5-3-0-3-|


Chorus

G|----------------------------------------------------------------|
D|----------------------------------------------------------------|
A|----------------------------------------------------------------|
D|8-8-8-8-8-8-8-8-5-5-5-5-5-5-3/5/7-7-7-7-7-7-7-7-7-7-7-7-7-7-7-7-|

G|------------------------------------------------|
D|------------------------------------------------|
A|--------------------------------5-5-5-5-5-5-5-5-|  (small guitar break)
D|8-8-8-8-8-8-8-8-5-5-5-5-5-5-5-5-----------------|

G|----------------------------------------------------------------|
D|----------------------------------------------------------------|
A|----------------------------------------------------------------|
D|8-8-8-8-8-8-8-8-5-5-5-5-5-5-3/5/7-7-7-7-7-7-7-7-7-7-7-7-7-7-7-7-|

G|------------------------------------------------|
D|------------------------------------------------|
A|--------------------------------5-5-5-5-5-5-5-5-|
D|8-8-8-8-8-8-8-8-5-5-5-5-5-5-5-5-----------------|


Break/2nd Chorus? dunno buts playd just afta d chorus

G|------------------------------------------------------------------------|
D|------------------------------------------------------------------------|
A|------------------------------------------------------------------------|
D|8-8-8-8-8-8-8-8-10-10-10-10-10-10-10-10-7-7-7-7-7-7-7-7-7-7-7-7-7-7-7-7-|

G|-----------------------------------------------------------------|
D|----------------------------------------------------------5p3----|
A|--------------------------------3h5-5-3h5-5-3h5-3h5-5-3h5----5p3-|
D|8-8-8-8-8-8-8-8-5-5-5-5-5-5-5-5----------------------------------|

G|--------------------------------------------------------|
D|--------------------------------------------------------|
A|--------------------------------------------------------|
D|8-8-8-8-8-8-8-8-10-10-10-10-10-10-10-10-7-7-7-7-7-7-7-7-|

G|-----------------------------------------------------------------|
D|----------------------------------------------------------5p3----|
A|--------------------------------3h5-5-3h5-5-3h5-3h5-5-3h5----5p3-|
D|8-8-8-8-8-8-8-8-5-5-5-5-5-5-5-5----------------------------------|


Interludey thing/Bridge

G|----------------------------------------------------------------|
D|----------------------------------------------------------------|
A|1---1---3---3---1---1---3---3---1---1---3---3---1---3---3-3-3-3-|
D|----------------------------------------------------------------|

G|---------------
D|8p7-5h7p5-3p2h3
A|---------------|
D|---------------|


2nd Chorus

G|------------------------------------------------------------------------|
D|------------------------------------------------------------------------|
A|------------------------------------------------------------------------|
D|8-8-8-8-8-8-8-8-10-10-10-10-10-10-10-10-7-7-7-7-7-7-7-7-7-7-7-7-7-7-7-7-|

G|-----------------------------------------------------------------|
D|----------------------------------------------------------5p3----|
A|--------------------------------3h5-5-3h5-5-3h5-3h5-5-3h5----5p3-|
D|8-8-8-8-8-8-8-8-5-5-5-5-5-5-5-5----------------------------------|

G|--------------------------------------------------------|
D|--------------------------------------------------------|
A|--------------------------------------------------------|
D|8-8-8-8-8-8-8-8-10-10-10-10-10-10-10-10-7-7-7-7-7-7-7-7-|

G|------------------------------------------------------------|
D|------------------------------------------------------------|
A|--------------------------------3h5-5-3h5-5-3h5-3h5-5-3h5-5-|
D|8-8-8-8-8-8-8-8-5-5-5-5-5-5-5-5-----------------------------|

G|--------------------|
D|--------------------|
A|1-111-1-1-3-333-3-3-|   This ending bit kinda merges with the intro so
D|--------------------|   I think this is how it goes

G|--------------------------------------------|
D|--------------------------------------------|
A|5-555-5-5-5-555-5-5-8-888-8-8-1-111-1-1/3/5-|
D|--------------------------------------------|

As always listen 2 d song to find d rhythem





Comments


Popular Inme tabs & chords
I Won't Let Go Bass Tabs
Beyond Tabs
Her Mask Tabs
I Will Honour You 2 Tabs
May Tabs
Miracle 2 Tabs
Raindrops On Stones Tabs
So You Know Tabs
The Art Of Moderation Tabs
Firefly Ukulele


Song lyrics



↑ Back to top | Tablatures and chords are parodies/interpretations of the original songs. You may use it for private study, scholarship, research or language learning purposes only
© 2014 AZChords.com Contact us | Privacy policy | DMCA | Add/correct tabs | Request tabs | Top 50 tabs