>
 >
Just A Glimpse

Just A Glimpse Guitar Tabs

Inme - Just A Glimpse chords, tabs, tablatures, lyrics

Guitar lessons | Add/correct | Request | Top 50 tabs Artists:  A B C D E F G H I J K L M N O P Q R S T U V W X Y Z 0-9

Just A Glimpse Guitar Tabs – Inme

CD, Sheet music, Poster

Do you like Just A Glimpse? Share with your friends now
Bass TabsBass Tabs v2TabsTabs v2
Tuning: e,B,G,D,A,D

Intro
e|-----------------------------------------------------------------------|
B|-----------------------------------------------------------------------|
G|-----------------------------------------------------------------------|
D|--0----0----0---0----0----0----------------------------7br-------------|
A|--9----9----9---9----9----9----10---10--10---13---12-------------------|
D|--0--xx0--xx0-xx0--xx0--xx0--xx8--xx8-xx8--xx8--xx8-xx-----------------|
Live, Dave either plays 14 on B or 7 harmonic on D. He uses both so do what you want.

e|-----------------------------------------------------------------------|
B|-----------------------------------------------------------------------|
G|-----------------------------------------------------------5h7---------|
D|--0----0----0---0----0----0---0-------------------------5h7---5h7------|
A|--9----9----9---9----9----9---9----8----10--10---7---------------------|
D|--0--xx0--xx0-xx0--xx0--xx0-xx0--xx10-xx12xx12-xx9--x-x----------------|

e|-----------------------------------------------------------------------|
B|-----------------------------------------------------------------------|
G|-----------------------------------------------------------------------|
D|--0----0----0----------------------------------------------------------|
A|--9----9----9----------------------------------------------------------|
D|--0--xx0--xx0----20p0-19p0-17p0-19p0-17p0-15p0-14p0-15p0---------------|

e|-----------------------------------------------------------------------|
B|-----------------------------------------------------------------------|
G|-----------------------------------------------------------------------|
D|---------------------------7br-----------------------------------------|
A|---10---10--10---13---12-----------------------------------------------|
D|-xx8--xx8-xx8--xx8--xx8-xx---------------------------------------------|

e|-----------------------------------------------------------------------|
B|-----------------------------------------------------------------------|
G|-----------------------------------------------------------------------|
D|--0----0----0----------------------------------------------------------|
A|--9----9----9----------------------------------------------------------|
D|--0--xx0--xx0----20p0-19p0-17p0-19p0-17p0-15p0-14p0-15p0---------------|

e|-----------------------------------------------------------------------|
B|-----------------------------------------------------------------------|
G|---------------------------5h7-----------------------------------------|
D|------------------------5h7---5h7--------------------------------------|
A|---8----10--10---7-----------------------------------------------------|
D|-xx10-xx12xx12-xx9--x-x------------------------------------------------|

Verse
Guitar 1
e|--------10---------------12--------------------12-------13---12--------|
B|----10-----10--10----10-----10---10------13-------13--------------13---|
G|--7---7------7---7-7---7-------7----7-10----10-------10----------------|
D|-----------------------------------------------------------------------|
A|-----------------------------------------------------------------------|
D|-----------------------------------------------------------------------| X4

Guitar 2 comes in on every other time of the above riff
e|-------------------------------------------------------------------------|
B|-------------------------------------------------------------------------|
G|-------------------------------------------------------------------------|
D|-------------------------------------------------------------------------|
A|-------------------------------------------------------------------------|
D|-------------------------------------------------------0-1010-01010-010--| X2

e|-----------------------------------------------------------------------|
B|-----------------------------------------------------------------------|
G|-----------------------------------------------------------------------|
D|-----------------------------------------------------------------------|
A|-----------------------------------------------------------------------|
D|--20p0-19p0-17p0-19p0-17p0-15p0-14p0-15p0------------------------------|

Chorus
e|-----------------------------------------------------------------------|
B|-----------------------------------------------------------------------|
G|-----------------------------------------------------------------------|
D|--88888888-55555555-77777777-------------------------------------------|
A|--88888888-55555555-77777777-------------------------------------------|
D|--88888888-55555555-77777777-8p0-7p0-5p0-7p0-5p0-3p0-2p0-3p0-----------|

e|--------------------------------------------------------------------------|
B|--------------------------------------------------------------------------|
G|--------------------------------------------------------------------------|
D|--88888888-555---55-00000000----------------------------------------------|
A|--88888888-555---55-00000000----------------------------------------------|
D|--88888888-555xxx55-00000000-20p0-19p0-17p0-19p0-17p0-15p0-13p0-12p0-13p0-|

e|-----------------------------------------------------------------------|
B|-----------------------------------------------------------------------|
G|-----------------------------------------------------------------------|
D|--88888888-55555555-77777777-------------------------------------------|
A|--88888888-55555555-77777777-------------------------------------------|
D|--88888888-55555555-77777777-8p0-7p0-5p0-7p0-5p0-3p0-2p0-3p0-----------|
Pm                             x   x   x   x   x   x   x   x

e|-----------------------------------------------------------------------|
B|-----------------------------------------------------------------------|
G|-----------------------------------------------------------------------|
D|--88888888-555---55-00000000-------------------------------------------|
A|--88888888-555---55-00000000-------------------------------------------|
D|--88888888-555xxx55-00000000--0-10-10--0-10-10--0-10-------------------|

Verse 2
Guitar 1
e|-----------13-12-------------------------------------------------------|
B|-----------------13----------------------------------------------------|
G|--------------------12-------------------------------------------------|
D|--------12-------------12----------------------------------------------|
A|-----12----------------------------------------------------------------|
D|--12-------------------------------------------------------------------|

Guitar 2
e|-----------------------------------------------------------------------|
B|-----------------------------------------------------------------------|
G|-----------------------------------------------------------------------|
D|--0-0-0-0000-0-0-0-0000-8-8-8-8888-------------------------------------|
A|--0-0-0-0000-0-0-0-0000-8-8-8-8888-------------------------------------|
D|--0-0-0-0000-0-0-0-0000-8-8-8-8888-0-10-10-0-10-10-0-10----------------|

e|-----------------------------------------------------------------------|
B|-----------------------------------------------------------------------|
G|-----------------------------------------------------------------------|
D|0-0-0-0000-0-0-0-0000-3-3-3-3333---------------------------------------|
A|9-9-9-9999-9-9-9-9999-3-3-3-3333---------------------------------------|
D|0-0-0-0000-0-0-0-0000-3-3-3-3333-20p019p017p019p017p015p013p012p013p0--|

Chorus
e|-----------------------------------------------------------------------|
B|-----------------------------------------------------------------------|
G|-----------------------------------------------------------------------|
D|--88888888-55555555-77777777-------------------------------------------|
A|--88888888-55555555-77777777-------------------------------------------|
D|--88888888-55555555-77777777-8p0-7p0-5p0-7p0-5p0-3p0-2p0-3p0-----------|

e|--------------------------------------------------------------------------|
B|--------------------------------------------------------------------------|
G|--------------------------------------------------------------------------|
D|--88888888-555---55-00000000----------------------------------------------|
A|--88888888-555---55-00000000----------------------------------------------|
D|--88888888-555xxx55-00000000-20p0-19p0-17p0-19p0-17p0-15p0-13p0-12p0-13p0-|

e|-----------------------------------------------------------------------|
B|-----------------------------------------------------------------------|
G|-----------------------------------------------------------------------|
D|--88888888-55555555-77777777-------------------------------------------|
A|--88888888-55555555-77777777-------------------------------------------|
D|--88888888-55555555-77777777-8p0-7p0-5p0-7p0-5p0-3p0-2p0-3p0-----------|
Pm                             x   x   x   x   x   x   x   x

e|-----------------------------------------------------------------------|
B|-----------------------------------------------------------------------|
G|-----------------------------------------------------------------------|
D|--88888888-555---55-00000000-------------------------------------------|
A|--88888888-555---55-00000000-------------------------------------------|
D|--88888888-555xxx55-00000000-------------------------------------------|

Chorus 2
Dave plays this part of the song differently on the recorded version to
when he plays it live so i've tabbed both ways.
e|-----------------------------------------------------------------------|
B|-----------------------------------------------------------------------|
G|-----------------------------------------------------------------------|
D|--8-8-8-8-8-8-8-8-1010101010101010-7777777777777777--------------------|
A|--8-8-8-8-8-8-8-8-1010101010101010-7777777777777777--------------------|
D|--8-8-8-8-8-8-8-8-1010101010101010-7777777777777777--------------------|

e|-----------------------------------------------------------------------|
B|-----------------------------------------------------------------------|
G|-----------------------------------------------------------------------|
D|--8-8-8-8-8-8-8-8-1010101010101010-0000000000000000--------------------|
A|--8-8-8-8-8-8-8-8-1010101010101010-0000000000000000--------------------|
D|--8-8-8-8-8-8-8-8-1010101010101010-0000000000000000--------------------|

Chorus 2 Live
e|-----------------------------------------------------------------------|
B|-----------------------------------------------------------------------|
G|--10101010101010101212121212151514----6h7p6---------6h7p6---6----------|
D|--8-8-8-8-8-8-8-8-1010101010101010-777-----7-77777--------7---7--------|
A|--8-8-8-8-8-8-8-8-1010101010101010-777-------77777---------------------|
D|--8-8-8-8-8-8-8-8-1010101010101010-777-------77777---------------------|

e|-----------------------------------------------------------------------|
B|-----------------------------------------------------------------------|
G|--10101010101010101212121212121212-------------------------------------|
D|--8-8-8-8-8-8-8-8-1010101010101010-0000000000000000--------------------|
A|--8-8-8-8-8-8-8-8-1010101010101010-0000000000000000--------------------|
D|--8-8-8-8-8-8-8-8-1010101010101010-0000000000000000--------------------|

To get the effect just before the bridge,rest your finger on the neck as if
to do a harmonic and slide your finger up the neck up to about 6 on D a few
times.

Bridge
e|------------------------------------------------------------------------|
B|------------------------------------------------------------------------|
G|------------------------------------------------------------------------|
D|------8--------12------8--------12--------10--------12-------10------12-|
A|----8-------12-------8-------12--------10--------12-------10-------12---|
D|--8------12--------8------12--------10--------12-------10-------12------|

Pre chorus
This is that mad pull off thing
e|-----------------------------------------------------------------------|
B|-----------------------------------------------------------------------|
G|-----------------------------------------------------------------------|
D|-----------------------------------------------------------------------|
A|-----------------------------------------------------------------------|
D|--19p0-17p0-15p0-17p0-19p0-17p0-15p0-17p0------------------------------|

e|-----------------------------------------------------------------------|
B|-----------------------------------------------------------------------|
G|-----------------------------------------------------------------------|
D|-----------------------------------------------------------------------|
A|-----------------------------------------------------------------------|
D|--20p0-19p0-17p0-19p0-17p0-15p0-13p0-12p0-13p0-------------------------|

Chorus 2
e|-----------------------------------------------------------------------|
B|-----------------------------------------------------------------------|
G|-----------------------------------------------------------------------|
D|--8-8-8-8-8-8-8-8-1010101010101010-7777777777777777--------------------|
A|--8-8-8-8-8-8-8-8-1010101010101010-7777777777777777--------------------|
D|--8-8-8-8-8-8-8-8-1010101010101010-7777777777777777--------------------|

e|-----------------------------------------------------------------------|
B|-----------------------------------------------------------------------|
G|-----------------------------------------------------------------------|
D|--8-8-8-8-8-8-8-8-1010101010101010-0000000000000000--------------------|
A|--8-8-8-8-8-8-8-8-1010101010101010-0000000000000000--------------------|
D|--8-8-8-8-8-8-8-8-1010101010101010-0000000000000000--------------------|

Chorus 2 Live
e|-----------------------------------------------------------------------|
B|-----------------------------------------------------------------------|
G|--10101010101010101212121212151514----6h7p6---------6h7p6---6----------|
D|--8-8-8-8-8-8-8-8-1010101010101010-777-----7-77777--------7---7--------|
A|--8-8-8-8-8-8-8-8-1010101010101010-777-------77777---------------------|
D|--8-8-8-8-8-8-8-8-1010101010101010-777-------77777---------------------|

e|-----------------------------------------------------------------------|
B|-----------------------------------------------------------------------|
G|--10101010101010101212121212121212-------------------------------------|
D|--8-8-8-8-8-8-8-8-1010101010101010-0000000000000000--------------------|
A|--8-8-8-8-8-8-8-8-1010101010101010-0000000000000000--------------------|
D|--8-8-8-8-8-8-8-8-1010101010101010-0000000000000000--------------------|

Outro
After playing the chorus 2 twice, Dave swops the last 0 chord for the intro
riff (if you listen carfully it's easy to spot the change).
e|-----------------------------------------------------------------------|
B|-----------------------------------------------------------------------|
G|-----------------------------------------------------------------------|
D|--0----0----0----------------------------------------------------------|
A|--9----9----9----------------------------------------------------------|
D|--0--xx0--xx0----20p0-19p0-17p0-19p0-17p0-15p0-14p0-15p0---------------|

e|-----------------------------------------------------------------------|
B|-----------------------------------------------------------------------|
G|-----------------------------------------------------------------------|
D|---------------------------7br-----------------------------------------|
A|---10---10--10---13---12-----------------------------------------------|
D|-xx8--xx8-xx8--xx8--xx8-xx---------------------------------------------|

e|-----------------------------------------------------------------------|
B|-----------------------------------------------------------------------|
G|-----------------------------------------------------------------------|
D|--0----0----0----------------------------------------------------------|
A|--9----9----9----------------------------------------------------------|
D|--0--xx0--xx0----20p0-19p0-17p0-19p0-17p0-15p0-14p0-15p0---------------|

e|-----------------------------------------------------------------------|
B|-----------------------------------------------------------------------|
G|---------------------------5h7-----------------------------------------|
D|------------------------5h7---5h7--------------------------------------|
A|---8----10--10---7-----------------------------------------------------|
D|-xx10-xx12xx12-xx9--x-x------------------------------------------------|

| /  slide up
| \  slide down
| h  hammer-on
| p  pull-off
| ~  vibrato
| +  harmonic
| x  Mute note

I think that is about right but if theres any mistakes feel free to e-mail with
corrections (My e mail is at the top of the page) This is an awesome song an i
can't believe it wasn't tabbed before this on this site! Ah well theres a first
for everything :)





Comments


Popular Inme tabs & chords
Just A Glimpse Bass Tabs
Neptune 2 Bass Tabs
A Toast To Broken Glass Tabs
Firefly 1 Tabs
Her Mask Tabs
I Will Honour You 2 Tabs
In Loving Memory Tabs
Ruins Tabs
Ruins 1 Tabs
Trenches 2 Tabs


Song lyrics



↑ Back to top | Tablatures and chords are parodies/interpretations of the original songs. You may use it for private study, scholarship, research or language learning purposes only
© 2014 AZChords.com Contact us | Privacy policy | DMCA | Add/correct tabs | Request tabs | Top 50 tabs