» » »

Her Mask P.A Tabs (ver.1)

Artists:  A B C D E F G H I J K L M N O P Q R S T U V W X Y Z # 

Her Mask P.A Tabs (ver.1)

Inme
Rating:
0/5 (0 votes)

Hard to play? Try these video lessons and learn fast.
                "(2)
This is by far one of the best songs ever written and really easy to play. Although like all InMe song you will need effects. Its not as hard as you might think


Tuning – Drop D DADGBE

E|--------------------------|
B|--------------------------|
G|--------------------------|
D|---5*-----3----5*-----3*-|
A|--5*-----3----5*-----3*--|
D|-5*--5--3----5*--5-—3*---|
A high phaser should be used here

E|-------------------------|
B|-14/22-17/22-14/22-17/22-|
G|-------------------------|
D|-------------------------|
A|-------------------------|
D|-------------------------|
I don’t know which effect he uses on this 
song chances are its not to hard to figure out

E|-------------------------------------------------|
B|-------------------------------------------------|
G|-----7----9----5--5-5-5-5-5-3-3-3-3-3-7-2h3p2p0--|
D|-----5----7----3---------------------------------|
A|---5----7----3-----------------------------------|
D|-5----7----3-------------------------------------|
You play this bit atleast 4 times and you alternate
between phaser and distortian


E|------------------------------------------|
B|--14-14/17-17-17\11-14-14/17-17-17/14-18—-|
G|------------------------------------------|
D|------------------------------------------|
A|------------------------------------------|
D|------------------------------------------|
This bit isnt 100% correct but as I sed you
need effects And in this case all corrections 
are welcomed to fic this part

E|---------------------------------------------------------------------|
B|---------------------------------------------------------------------|
G|5-5-5-5-5-5---------------------------------555533337-2h3p2p0--------|
D|7-7-7-7-7-7-3-3-3-3-3-3-7-7-7-7-7-3-3-3-3-3--------------------------|
A|------------3-3-3-3-3-3-7-7-7-7-7-3-3-3-3-3--------------------------|
D|------------3-3-3-3-3-3-7-7-7-7-7-3-3-3-3-3--------------------------|
“I could cry my time has come and I am stupid forever sad”

E|-----------------------------------|
B|-----------------------------------|
G|-----7--------7----9---------9-----|
D|---7----7--7-7---9----7---9-9------|
A|--5-------5-----7--------7---------|
D|-5--5--5-5-----7--7--7--7----------|
"            
Hard to play? Try these video lessons and learn fast. | Correct




comments powered by Disqus
↑ Back to top | Tablatures and chords are parodies/interpretations of the original songs. You may use it for private study, scholarship, research or language learning purposes only