» » »

Inme, Her Mask P.A Tabs (ver.3)

Artists:  A B C D E F G H I J K L M N O P Q R S T U V W X Y Z # 

Her Mask P.A Tabs (ver.3)

Inme Tabs
Rating:
0/5 (0 votes)
Her Mask P.A lessons Tabs too difficult? Try these video lessons and learn fast
                Her Mask (p.a.) by InMe


Drop D Tuning

everything's in the right order, just
play through, and follow instructions

the timing is included

INTRO:   (with chorus, use bridge pickup)
E|--------------------------------|--------------------------------|
B|--------------------------------|--------------------------------|
G|--------------------------------|--------------------------------|
d|-----------------------------|----3---------------------------|
A|-----------------------------|--3-----------------------------|
D----------------------2-------|3-------------------------------|
  1 . + . 2 . + . 3 . + . 4 . + .  1 . + . 2 . + . 3 . + . 4 . + .

                                     chorus off, use neck pickup
 --------------------------------|--------------------------------|
 --------------------------------|--------------------------------|
 --------------------------------|--------------------------------|
 -----------------------------|----0-------------------------3-|
 -----------------------------|--8-------------------------1---|
------------------------------|8-------------------------3-----|
 1 . + . 2 . + . 3 . + . 4 . + .  1 . + . 2 . + . 3 . + . 4 . + .


 --------------------------------|--------------------------------|
 --------------------------------|--------------------------------|
 --------------------------------|--------------------------------|
 ----3-----3---------3-----3-----|--------------------------------|
 --------------0---0---0-------0-|----8-----8-----8-----8-----8-7-|
 0-------5-------0-------5---0---|8-------8-----8-----8-----8-----|
 1 . + . 2 . + . 3 . + . 4 . + .  1 . + . 2 . + . 3 . + . 4 . + .




"IS IT YOU GOD" PART:    (clean, neck pickup)
                                   these first 2 lines have the "SOLO"
                                   played over them, see below
 --------------------------------|--------------------------------|
 --------------------------------|--------------------------------|
 --------------------------------|--------------------------------|
 ----3-----3---------3-----3-----|--------------------------------|
 --------------0---0---0-------0-|----8-----8-----8-----8-----8-7-|
 0-------5-------0-------5---0---|8-------8-----8-----8-----8-----|
 1 . + . 2 . + . 3 . + . 4 . + .  1 . + . 2 . + . 3 . + . 4 . + .


 --------------------------------|--------------------------------|
 --------------------------------|--------------------------------|
 --------------------------------|--------------------------------|
 ----3-----3---------3-----3-----|--------------------------------|
 --------------0---0---0-------0-|----8-----8-----8-----8-----7-8-|
 0-------5-------0-------5---0---|8-------8-----8-----8-----8-----|
 1 . + . 2 . + . 3 . + . 4 . + .  1 . + . 2 . + . 3 . + . 4 . + .

 chorus on
 --------------------------------|--------------------------------|
 --------------------------------|---------------------------h----|
 --------------------------------|----------5-5-5-5-3-3-3-3-232-0-|
 ----12--------------14----------|----5---------------------------|
 --10--------------12------------|--3-----------------------------|
 10--------------12--------------|3-------------------------------|
 1 . + . 2 . + . 3 . + . 4 . + .  1 . + . 2 . + . 3 . + . 4 . + .

                            slide between picking notes      for this 15, pick 12 then quickly
 --------------------------------|------------------|-------/-----| slide to 15 straight after
 --------------------------------|------------------/------/------|
 --------------------------------|----------101010101212121514140-|
 ----12--------------14----------|----10--------------------------|
 --10--------------12------------|--8-----------------------------|
 10--------------12--------------|8-------------------------------|
 1 . + . 2 . + . 3 . + . 4 . + .  1 . + . 2 . + . 3 . + . 4 . + .


 --------------------------------|--------------------------------|
 --------------------------------|---------------------------h----|
 --------------------------------|----------5-5-5-5-3-3-3-3-232-0-|
 ----12--------------14----------|----5---------------------------|
 --10--------------12------------|--3-----------------------------|
 10--------------12--------------|3-------------------------------|
 1 . + . 2 . + . 3 . + . 4 . + .  1 . + . 2 . + . 3 . + . 4 . + .


                                  (acoustic played over this bar, see end of tab)
 --------------------------------|--------------------------------|
 --------------------------------|--------------------------------|
 --------------------------------|--------------------------------|
 ----12--------------14----------|8-8-8-108-8-8-7-8-888-108-8-8-7-|
 --10--------------12------------|8-8-8-108-8-8-7-8-888-108-8-8-7-|
 10--------------12--------------|8-8-8-108-8-8-7-8-888-108-8-8-7-|
 1 . + . 2 . + . 3 . + . 4 . + .  1 . + . 2 . + . 3 . + . 4 . + .





NOW PLAY THE "IS IT YOU GOD" PART
but skip the 3rd and 4th lines of it





THEN: (clean, neck pickup)
                          (drums: 1       2       3       4 X X   )
 --------------------------------|--------------------------------|
 --------------------------------|--------------------------------|
 --------------------------------|--------------------------------|
 ----3-----3---------3-----3-----|--------------------------------|
 --------------0---0---0-------0-|-8------------------------------|
 0-------5-------0-------5---0---|8-------------------------------|
 1 . + . 2 . + . 3 . + . 4 . + .  1 . + . 2 . + . 3 . + . 4 . + .


CHORUS:  (no chorus but distortion, bridge pickup)
  play a rhythm to it - something funky. i've just given the chords
  in most cases here, as it's hard and pointless to work out exactly
  what dave plays.
 --------------------------------|--------------------------------|
 --------------------------------|--------------------------------|
 --------------------------------|--------------------------------|
 0-------------------------------|3---------------------------3-3-|
 0-------------------------------|3---------------------------3-3-|
 0-------------------------------|3---------------------------3-3-|
 1 . + . 2 . + . 3 . + . 4 . + .  1 . + . 2 . + . 3 . + . 4 . + .
                                                             p.m._|
                                   -> = let ring
 --------------------------------|--------------------------------|
 --------------------------------|--------------------------------|
 --------------------------------|--------------------------------|
 7-------------------------------|8->              ---------/-----|
 7-------------------------------|8-8-8-8-8-8-8-8-8/10101010121212|
 7-------------------------------|8->              ---------------|
 1 . + . 2 . + . 3 . + . 4 . + .  1 . + . 2 . + . 3 . + . 4 . + .


 --------------------------------|--------------------------------|
 --------------------------------|--------------------------------|
 --------------------------------|--------------------------------|
 0-------------------------------|3-------------------------------|
 0-------------------------------|3-------------------------------|
 0-------------------------------|3-------------------------------|
 1 . + . 2 . + . 3 . + . 4 . + .  1 . + . 2 . + . 3 . + . 4 . + .


 --------------------------------|--------------------------------|
 --------------------------------|--------------------------------|
 --------------------------------|--------------------------------|
 7-------------------------------|8->              ---------------|
 7-------------------------------|8-8-8-8-8-8-8-8-8-7-7-7/108-8-0-|
 7-------------------------------|8->              ---------------|
 1 . + . 2 . + . 3 . + . 4 . + .  1 . + . 2 . + . 3 . + . 4 . + .


 --------------------------------|--------------------------------|
 --------------------------------|------------------------3--h----|
 --------------------------------|----------5-5-5-5-3-3-3---232-0-|
 ----12--------------14--------\-|----5---------------------------|
 --10--------------12------------|--3-----------------------------|
 10--------------12--------------|3-------------------------------|
 1 . + . 2 . + . 3 . + . 4 . + .  1 . + . 2 . + . 3 . + . 4 . + .


 --------------------------------|--------------------------------|
 --------------------------------|--------------------------------|
 --------------------------------|--------------------------------|
 ----12--------------14--------\-|8-8-8-108-8-8-7-8-888-108-8-8-7-|
 --10--------------12------------|8-8-8-108-8-8-7-8-888-108-8-8-7-|
 10--------------12--------------|8-8-8-108-8-8-7-8-888-108-8-8-7-|
 1 . + . 2 . + . 3 . + . 4 . + .  1 . + . 2 . + . 3 . + . 4 . + .


 --------------------------------|--------------------------------|
 --------------------------------|------------------------3--h----|
 --------------------------------|----------5-5-5-5-3-3-3---232-0-|
 ----12--------------14--------\-|----5---------------------------|
 --10--------------12------------|--3-----------------------------|
 10--------------12--------------|3-------------------------------|
 1 . + . 2 . + . 3 . + . 4 . + .  1 . + . 2 . + . 3 . + . 4 . + .


 --------------------------------|--------------------------------|
 --------------------------------|--------------------------------|
 --------------------------------|--------------------------------|
 ----12--------------14--------\-|8-8-8-108-8-8-7-8-888-108-8-8-7-|
 --10--------------12------------|8-8-8-108-8-8-7-8-888-108-8-8-7-|
 10--------------12--------------|8-8-8-108-8-8-7-8-888-108-8-8-7-|
 1 . + . 2 . + . 3 . + . 4 . + .  1 . + . 2 . + . 3 . + . 4 . + .
                                 p.m.__|  _____________|  _______|


BIG QUIET BIT:  (distortion off, chorus on, bridge pickup)
                           C = choke (mute strings with fretting hand)
 --------------------------------|--------------------------------|
 --------------------------------|--------------------------------|
 --------------------------------|----------------14--------------|
 ----10----10----10----10----12--|----14----15------12--14----15--|
 --8---8-----8-----8-------10--10|--12--12----12--C-------12----0-|
 8-------8-----8-----8--/10------|12------12----12C---12----12----|
 1 . + . 2 . + . 3 . + . 4 . + .  1 . + . 2 . + . 3 . + . 4 . + .

                                                       1/2 bend
 --------------------------------|--------------------------------|
 --------------------------------|----------------10C-10b r-------|
 --------------------------------|----------10--------------------|
 ----9-----10----9-----7-----5---|----10------8-------------------|
 --7---7-----7-----7-------3---3/(8)8---8-------------------------|
 7-------7-----7-----7---3-------|8-------8-----8-----------------|
 1 . + . 2 . + . 3 . + . 4 . + .  1 . + . 2 . + . 3 . + . 4 . + .




"SOLO"   (with chorus and delay)
this bit uses volume swells with a delay pedal (set speed to 8th notes)

if you can, turn volume down just before picking the notes you are sliding 
to, pick it, and then turn volume up to get that fading in effect.
it is easier with a volume pedal. (guitar->volume->delay->chorus->amp)

fade the 9 in
 | turn down volume to 0 - the delay will sustain the note
 |     | pick 17 when volume is down
 |     |   |  turn volume up to fade into here
 |     |   |      |
 |-----|---17---(17)----\13-----\|6--------------/8------/10------|
 |-------------------------------|--------------------------------|
 9-------------------------------|--------------------------------|
 --------------------------------|--------------------------------|
 --------------------------------|--------------------------------|
 --------------------------------|--------------------------------|
 1 . + . 2 . + . 3 . + . 4 . + .  1 . + . 2 . + . 3 . + . 4 . + .


       same as before
 ---------------(17)----\13-----/|18------------------------------|
 --------------------------------|--------------------------------|
 9-------------------------------|--------------------------------|
 --------------------------------|--------------------------------|
 --------------------------------|--------------------------------|
 --------------------------------|--------------------------------|
 1 . + . 2 . + . 3 . + . 4 . + .  1 . + . 2 . + . 3 . + . 4 . + .


 --------------------------------|
 --------------------------------|
 --------------------------------|
 --------------------------------|
 --------------------------------|
 --------------------------------|
 1 . + . 2 . + . 3 . + . 4 . + .


SLIGHTLY DIFFERENT CHORUS:   (distortion, no chorus or delay, bridge pickup)
  a lead part plays over the first part of this chorus, but it is very
  difficult to make out. if anyone manages to work it out, mail me:
  any success.
 --------------------------------|--------------------------------|
 --------------------------------|--------------------------------|
 --------------------------------|--------------------------------|
 0-------------------------------|3---------------------------3-3-|
 0-------------------------------|3---------------------------3-3-|
 0-------------------------------|3---------------------------3-3-|
 1 . + . 2 . + . 3 . + . 4 . + .  1 . + . 2 . + . 3 . + . 4 . + .
                                                             p.m._|
                                   -> = let ring
 --------------------------------|--------------------------------|
 --------------------------------|--------------------------------|
 --------------------------------|--------------------------------|
 7-------------------------------|8->              --------|
 7-------------------------------|8-8-8-8-8-8-8-8-8/10101010C-----|
 7-------------------------------|8->              ---------------|
 1 . + . 2 . + . 3 . + . 4 . + .  1 . + . 2 . + . 3 . + . 4 . + .


 --------------------------------|--------------------------------|
 --------------------------------|--------------------------------|
 --------------------------------|--------------------------------|
 0-------------------------------|3-------------------------------|
 0-------------------------------|3-------------------------------|
 0-------------------------------|3-------------------------------|
 1 . + . 2 . + . 3 . + . 4 . + .  1 . + . 2 . + . 3 . + . 4 . + .


 --------------------------------|--------------------------------|
 --------------------------------|--------------------------------|
 --------------------------------|--------------------------------|
 7-------------------------------|8-8-8-8-8-8-8-8-8-8-8-8-1/      |
 7-------------------------------|8-8-8-8-8-8-8-8-8-8-8-8-1/      |
 7-------------------------------|8-8-8-8-8-8-8-8-8-8-8-8-1/      |
 1 . + . 2 . + . 3 . + . 4 . + .  1 . + . 2 . + . 3 . + . 4 . + .


 --------------------------------|--------------------------------|
 --------------------------------|------------------------3--h----|
 --------------------------------|----------5-5-5-5-3-3-3---232-0-|
 ----12--------------14--------\-|----5---------------------------|
 --10--------------12------------|--3-----------------------------|
 10--------------12--------------|3-------------------------------|
 1 . + . 2 . + . 3 . + . 4 . + .  1 . + . 2 . + . 3 . + . 4 . + .


 --------------------------------|--------------------------------|
 --------------------------------|--------------------------------|
 --------------------------------|--------------------------------|
 ----12--------------14--------\-|8-8-8-108-8-8-7-8-888-108-xxxxxx|
 --10--------------12------------|8-8-8-108-8-8-7-8-888-108-xxxxxx|
 10--------------12--------------|8-8-8-108-8-8-7-8-888-108-xxxxxx|
 1 . + . 2 . + . 3 . + . 4 . + .  1 . + . 2 . + . 3 . + . 4 . + .


 --------------------------------|--------------------------------|
 --------------------------------|------------------------3--h----|
 --------------------------------|----------5-5-5-5-3-3-3---232-0-|
 ----12--------------14--------\-|----5---------------------------|
 --10--------------12------------|--3-----------------------------|
 10--------------12--------------|3-------------------------------|
 1 . + . 2 . + . 3 . + . 4 . + .  1 . + . 2 . + . 3 . + . 4 . + .


 --------------------------------|--------------------------------|
 --------------------------------|--------------------------------|
 --------------------------------|--------------------------------|
 ----12--------------14--------\-|8-8-8-108-8-8-7-8-888-108-8-8-7-|
 --10--------------12------------|8-8-8-108-8-8-7-8-888-108-8-8-7-|
 10--------------12--------------|8-8-8-108-8-8-7-8-888-108-8-8-7-|
 1 . + . 2 . + . 3 . + . 4 . + .  1 . + . 2 . + . 3 . + . 4 . + .
                                 p.m.__|  _____________|  _______|


ENDING:  (clean)
 the "SOLO" plays over the ending, with the extra solo bar (see bottom)
 --------------------------------|--------------------------------|
 --------------------------------|--------------------------------|
 --------------------------------|--------------------------------|
 ----3-----3---------3-----3-----|--------------------------------|
 --------------0---0---0-------0-|----8-----8-----8-----8-----8-7-|
 0-------5-------0-------5---0---|8-------8-----8-----8-----8-----|
 1 . + . 2 . + . 3 . + . 4 . + .  1 . + . 2 . + . 3 . + . 4 . + .
                                                this line x2,
                                           slowing down 2nd time

 --------------------------------|
 --------------------------------|
 --------------------------------|
 --------------------------------|
 --------------------------------|
 10->                        ----|




ACOUSTIC PART (in last bar of "IS IT YOU GOD" PART):
1st time:
 --------1-1---1---1---1-1-1---1-|
 --------1-1---1---1---1-1-1---1-|
 3-3-3---3-3-3-3---3---3-3-3-3-3-|
 3-3-3-------3---------------3---|
 1-1-1-------1---------------1---|
 --------------------------------|
 1 . + . 2 . + . 3 . + . 4 . + .

2nd time:
 ------1-1-----1---1---1---1-----|
 ------1-1-----1---1---1---1-----|
 3-3-3-3-3---3-3---3-3-3---3-----|
 3-3-3-------3-------3-----------|
 1-1-1-------1-------1-----------|
 --------------------------------|
 1 . + . 2 . + . 3 . + . 4 . + .



EXTRA SOLO BAR (at end)   (chorus, delay)
 --------------------------------|
 18/          ->  ---------------|
 --------------------------------|
 --------------------------------|
 --------------------------------|
 --------------------------------|
            

comments powered by Disqus
↑ Back to top | Inme Tabs for Her Mask P.A. Lyrics for acoustic guitar and electric guitar. Tablatures and chords are parodies/interpretations of the original songs. You may use it for private study, scholarship, research or language learning purposes only