» » »

Inhale Exhale, Sons Of Tomorrow (To Noah James) Tabs (ver.3)

Artists:  A B C D E F G H I J K L M N O P Q R S T U V W X Y Z # 

Sons Of Tomorrow (To Noah James) Tabs (ver.3)

Inhale Exhale Tabs
Rating:
0/5 (0 votes)
Sons Of Tomorrow (To Noah James) lessons Tabs too difficult? Try these video lessons and learn fast
                -------------------------------------------------------------------------------
                    Sons of Tomorrow (To Noah James)- Inhale Exhale
-------------------------------------------------------------------------------

Tuning: standard

To make it easier to play, I adapted this song so that it can be played with a 
capo on the 3rd fret.

***CAPO 3***

The chords in this song are as follows : (in order of EADGBe)

     Am     Gsus4    FM7/C
  (577555) (355533) (887555)

HOWEVER, in relation to the capo on the 3rd fret they are notated like this..
(also in EADGBe order)

     Am     Gsus4    FM7/C
  (244222) (022200) (554222)





INTRO:

e|---------------------------------------------------------------------------|
B|----------2-----------2--------------------2-----------2-------------------|
G|------2-----------2-----------2--------2-----------2-----------2-----------|
D|--4-----------4-----------4--------4-----------4-----------4---------------|
A|---------------------------------------------------------------------------|
E|---------------------------------------------------------------------------|

e|---------------------------------------------------------------------------|
B|----------0-----------0--------------------0-----------0-------------------|
G|------2-----------2-----------2--------2-----------2-----------2-----------|
D|--2-----------2-----------2--------2-----------2-----------2---------------|
A|---------------------------------------------------------------------------|
E|---------------------------------------------------------------------------|

e|---------------------------------------------------------------------------|
B|----------2-----------3-----------2-----------3-----------2h3p2------------|
G|------2-----------2-----------2-----------2-----------2--------------------|
D|--0-----------0-----------0-----------0-----------0------------------------|
A|---------------------------------------------------------------------------|
E|---------------------------------------------------------------------------|

e|----------------------------------0----------------------------------------|
B|----------2-----------3-----------------------3-----------2----------------|
G|------2-----------2-----------2-----------2-----------2--------------------|
D|--0-----------0-----------0-----------0-----------0------------------------|
A|---------------------------------------------------------------------------|
E|---------------------------------------------------------------------------|

                      ^^^ REPEAT THIS SECTION TWICE ^^^





CHORUS: play around with the strumming pattern to match the song,
 there is ONE count of the strumming pattern for Am, ONE count of the
 strumming pattern for Gsus4, and TWO counts for FM7/C

e|--2---------------------0------------------------------2-------------------|
B|--2---------------------0------------------------------2-------------------|
G|--2---------------------2------------------------------2-------------------|
D|--4---------------------2------------------------------4-------------------|
A|--4---------------------2------------------------------5-------------------|
E|--2---------------------0------------------------------5-------------------|
    Hold......            On.......                   To  Me....


                      ^^^ REPEAT THIS SECTION TWICE ^^^ 





VERSE 1:

e|---------------------------------------------------------------------------|
B|----------2-----------2--------------------2-----------2-------------------|
G|------2-----------2-----------2--------2-----------2-----------2-----------|
D|--4-----------4-----------4--------4-----------4-----------4---------------|
A|---------------------------------------------------------------------------|
E|---------------------------------------------------------------------------|
                          
e|---------------------------------------------------------------------------|
B|----------0-----------0--------------------0-----------0-------------------|
G|------2-----------2-----------2--------2-----------2-----------2-----------|
D|--2-----------2-----------2--------2-----------2-----------2---------------|
A|---------------------------------------------------------------------------|
E|---------------------------------------------------------------------------|

e|---------------------------------------------------------------------------|
B|----------2-----------3-----------2-----------3-----------2h3p2------------|
G|------2-----------2-----------2-----------2-----------2--------------------|
D|--0-----------0-----------0-----------0-----------0------------------------|
A|---------------------------------------------------------------------------|
E|---------------------------------------------------------------------------|

e|----------------------------------0----------------------------------------|
B|----------2-----------3-----------------------3-----------2----------------|
G|------2-----------2-----------2-----------2-----------2--------------------|
D|--0-----------0-----------0-----------0-----------0------------------------|
A|---------------------------------------------------------------------------|
E|---------------------------------------------------------------------------|

e|---------------------------------------------------------------------------|
B|----------2-----------2--------------------2-----------2-------------------|
G|------2-----------2-----------2--------2-----------2-----------2-----------|
D|--4-----------4-----------4--------4-----------4-----------4---------------|
A|---------------------------------------------------------------------------|
E|---------------------------------------------------------------------------|

e|---------------------------------------------------------------------------|
B|----------0-----------0--------------------0-----------0-------------------|
G|------2-----------2-----------2--------2-----------2-----------2-----------|
D|--2-----------2-----------2--------2-----------2-----------2---------------|
A|---------------------------------------------------------------------------|
E|---------------------------------------------------------------------------|

e|---------------------------------------------------------------------------|
B|----------2-----------3-----------2-----------3-----------2h3p2------------|
G|------2-----------2-----------2-----------2-----------2--------------------|
D|--0-----------0-----------0-----------0-----------0------------------------|
A|---------------------------------------------------------------------------|
E|---------------------------------------------------------------------------|

e|----------------------------------0---| <<--- Let the final note ring
B|----------2-----------3---------------|
G|------2-----------2-----------2-------|
D|--0-----------0-----------0-----------|
A|--------------------------------------|
E|--------------------------------------|





CHORUS2:  remember that there is ONE count of Am
                                 ONE count of Gsus4
                                 TWO counts of FM7/C

e|--2---------------------0------------------------------2-------------------|
B|--2---------------------0------------------------------2-------------------|
G|--2---------------------2------------------------------2-------------------|
D|--4---------------------2------------------------------4-------------------|
A|--4---------------------2------------------------------5-------------------|
E|--2---------------------0------------------------------5-------------------|
    Hold......            On.......                   To  Me....


                      ^^^ REPEAT THIS SECTION TWICE ^^^ 





VERSE2/OUTRO

e|---------------------------------------------------------------------------|
B|----------2-----------2--------------------2-----------2-------------------|
G|------2-----------2-----------2--------2-----------2-----------2-----------|
D|--4-----------4-----------4--------4-----------4-----------4---------------|
A|---------------------------------------------------------------------------|
E|---------------------------------------------------------------------------|

e|---------------------------------------------------------------------------|
B|----------0-----------0--------------------0-----------0-------------------|
G|------2-----------2-----------2--------2-----------2-----------2-----------|
D|--2-----------2-----------2--------2-----------2-----------2---------------|
A|---------------------------------------------------------------------------|
E|---------------------------------------------------------------------------|

e|---------------------------------------------------------------------------|
B|----------2-----------3-----------2-----------3-----------2h3p2------------|
G|------2-----------2-----------2-----------2-----------2--------------------|
D|--0-----------0-----------0-----------0-----------0------------------------|
A|---------------------------------------------------------------------------|
E|---------------------------------------------------------------------------|

e|----------------------------------0---| <<--- Let the final note ring
B|----------2-----------3---------------|
G|------2-----------2-----------2-------|
D|--0-----------0-----------0-----------|
A|--------------------------------------|
E|--------------------------------------|

END OF SONG





NOTE: if you don't like the tone of the Gsus4 chord in the chorus, try replacing it with either:

   G minor:      or G minor add 9th: 
e|----0-------------2--------------------|
B|----0-------------0--------------------|
G|----0-------------0--------------------|
D|----2-------------2--------------------|
A|----2-------------2--------------------|
E|----0-------------0--------------------|



| /  slide up
| \  slide down
| h  hammer-on
| p  pull-off
| ~  vibrato
| +  harmonic
| x  Mute note
===============================================================================
            
Submit corrections

comments powered by Disqus
↑ Back to top | Inhale Exhale Tabs for Sons Of Tomorrow (To Noah James). Lyrics for acoustic guitar and electric guitar. Tablatures and chords are parodies/interpretations of the original songs. You may use it for private study, scholarship, research or language learning purposes only