» » »

Inhale Exhale, Sons Of Tomorrow (To Noah James) Tabs (ver.2)

Artists:  A B C D E F G H I J K L M N O P Q R S T U V W X Y Z # 

Sons Of Tomorrow (To Noah James) Tabs (ver.2)

Inhale Exhale Tabs
 Rating:
4/5 (4 votes)
Sons Of Tomorrow (To Noah James) lessons Tabs too difficult? Try these video lessons and learn fast
                Tuning: Standard

| h   hammer-on
| p   pull-off
| ~   let ring

All guitars tuned EADGBe
 {Gtr 1 - acoustic on capo 3
 {Gtr 2 - acoustic on capo 5

It's VERY important that you remember that all of the tablature has been written 
with respect to the capo on the guitars.  As noted above, Gtr 1 is capo 3 and Gtr 
2 is capo 5.  Enjoy. :)

[Intro]
   {Gtr 1
e|--------------------------------------------------------------------| \
B|-------2-----2---------2-----2---------0-----0---------0-----0------| |
G|-----2-----2-----2---2-----2-----2---2-----2-----2---2-----2-----2--| |
D|---4-----4-----4---4-----4-----4---2-----2-----2---2-----2-----2----| |
A|--------------------------------------------------------------------| |
E|--------------------------------------------------------------------| |
 | {Gtr 2                                                             | | 
e|--------------------------------------------------------------------| |
B|--------------------------------------------------------------------| |
G|---9~------------------------------7~-------------------------------| |
D|--------------------------------------------------------------------| |
A|--------------------------------------------------------------------| |
E|--------------------------------------------------------------------| |
                                                                        |x2
   {Gtr 1                                                               |
e|--------------------------------------------------------------------| |
B|------2-----3-----2-----3-----2h3p2------2-----3-----5-----3-----2--| |
G|----2-----2-----2-----2-----2----------2-----2-----2-----2-----2----| |
D|--0-----0-----0-----0-----0----------0-----0-----0-----0-----0------| |
A|--------------------------------------------------------------------| |
E|--------------------------------------------------------------------| |
 | {Gtr 2                                                             | |
e|--------------------------------------------------------------------| |
B|--------------------------------------------------------------------| |
G|--5~----------------------------------------------------------------| |
D|--------------------------------------------------------------------| |
A|--------------------------------------------------------------------| |
E|--------------------------------------------------------------------| /


[Chorus]
   {Gtr 2
e|-33333333-3333333--55555555-5555555--33333333-33333333-33333333-3333333-|
B|-00000000-0000000--33333333-3333333--11111111-11111111-11111111-1111111-|
G|-00000000-0000000--22222222-2222222--00000000-00000000-00000000-0000000-|x2
D|-22222222-2222222--00000000-0000000--xxxxxxxx-xxxxxxxx-xxxxxxxx-xxxxxxx-|
A|-xxxxxxxx-xxxxxxx--00000000-0000000--33333333-33333333-33333333-3333333-|
E|-00000000-0000000-------------------------------------------------------|


[Verse]
   {Gtr 1
e|--------------------------------------------------------------------|
B|-------2-----2---------2-----2---------0-----0---------0-----0------|
G|-----2-----2-----2---2-----2-----2---2-----2-----2---2-----2-----2--|
D|---4-----4-----4---4-----4-----4---2-----2-----2---2-----2-----2----|
A|--------------------------------------------------------------------|
E|--------------------------------------------------------------------|
 | {Gtr 2                                                             |
e|--------------------------------------------------------------------|
B|--------------------------------------------------------------------| 
G|---9~------------------------------7~-------------------------------| 
D|--------------------------------------------------------------------| 
A|--------------------------------------------------------------------| 
E|--------------------------------------------------------------------|

   {Gtr 1
e|--------------------------------------------------------------------|
B|------2-----3-----2-----3-----2h3p2------2-----3-----5-----3-----2--|
G|----2-----2-----2-----2-----2----------2-----2-----2-----2-----2----|
D|--0-----0-----0-----0-----0----------0-----0-----0-----0-----0------|
A|--------------------------------------------------------------------|
E|--------------------------------------------------------------------|
 | {Gtr 2                                                             |
e|--------------------------------------------------------------------|
B|--------------------------------------------------------------------|
G|--5~----------------------------------------------------------------|
D|--------------------------------------------------------------------|
A|--------------------------------------------------------------------|
E|--------------------------------------------------------------------|

   {Gtr 1
e|--------------------------------------------------------------------|
B|-------2-----2---------2-----2---------0-----0---------0-----0------|
G|-----2-----2-----2---2-----2-----2---2-----2-----2---2-----2-----2--|
D|---4-----4-----4---4-----4-----4---2-----2-----2---2-----2-----2----|
A|--------------------------------------------------------------------|
E|--------------------------------------------------------------------|
 | {Gtr 2                                                             |
e|--------------------------------------------------------------------|
B|--------------------------------------------------------------------|
G|---9~------------------------------7~-------------------------------| 
D|--------------------------------------------------------------------| 
A|--------------------------------------------------------------------| 
E|--------------------------------------------------------------------|

   {Gtr 1
e|---------------------------------------------------------|
B|------2-----3-----2-----3-----2h3p2------2-----3-----5~--|
G|----2-----2-----2-----2-----2----------2-----2-----2-----|
D|--0-----0-----0-----0-----0----------0-----0-----0-------|
A|---------------------------------------------------------|
E|---------------------------------------------------------|
 | {Gtr 2                                                  |
e|---------------------------------------------------------|
B|---------------------------------------------------------|
G|--5~-----------------------------------------------------|
D|---------------------------------------------------------|
A|---------------------------------------------------------|
E|---------------------------------------------------------|

Repeat chorus, then do the verse again.. and you're done. God bless. :)
            
Submit corrections

comments powered by Disqus
↑ Back to top | Inhale Exhale Tabs for Sons Of Tomorrow (To Noah James). Lyrics for acoustic guitar and electric guitar. Tablatures and chords are parodies/interpretations of the original songs. You may use it for private study, scholarship, research or language learning purposes only