>
 >
It's Myself Vs. Being A Man 1

It's Myself Vs. Being A Man 1 Guitar Tabs

Inhale Exhale - It's Myself Vs. Being A Man 1 chords, tabs, tablatures, lyrics

Guitar lessons | Add/correct | Request | Top 50 tabs Artists:  A B C D E F G H I J K L M N O P Q R S T U V W X Y Z 0-9

It's Myself Vs. Being A Man 1 Guitar Tabs – Inhale Exhale

CD, Sheet music, Poster

Do you like It's Myself Vs. Being A Man 1? Share with your friends now
TabsTabs v2Tabs v3
---------------------------------------------------------------------------
It's Myslef Vs. Being A Man - Inhale/Exhale
---------------------------------------------------------------------------

Tuning: Drop-D down 1 Whole Step (C-G-C-f-a-d)

Intro
d|-------------------------15p0-|
a|-12p0-0-12p0-0-13p0-12p0------|
f|------------------------------|
C|------------------------------|
G|------------------------------| x6 (x4 rest of the song)
C|------------------------------|

d|------------------------------------------------------------|
a|-------------------------13p12-------------------------13p0-|
f|-12p0-0-12p0-0-14p0-12p0-------12p0-0-12p0-0-14p0-12p0------|
C|------------------------------------------------------------|
G|------------------------------------------------------------| x2
C|------------------------------------------------------------|

Pre-Verse
Guitar 1
d|------------------------------------------------------------|
a|-13p0-0-13p0-0-13p0-0-13p0-12-------13-13-13---13-13-13--12-|
f|------------------------------------------------------------|
C|------------------------------------------------------------|
G|------------------------------------------------------------|
C|------------------------------------------------------------|

Guitar 2
d|--------------------------------------------------------------------|
a|--------------------------------------------------------------------|
f|--------------------------------------------------------------------|
C|-5-5-5--5-5-5---2~---------------5-5-5-5-5-5-5-5-5-5-5-5--2~--------|
G|-3-3-3--3-3-3---2~---------------3-3-3-3-3-3-3-3-3-3-3-3--2~--------|
C|----------------2~----------------------------------------2~----12\-|

Verse
d|------------------------------------------------------------|
a|------------------------------------------------------------|
f|------------------------------------------------------------|
C|---------0-0-0----------0-0-0----------0-0-0----------------|
G|-0-0-0-0-6-6-6--0-0-0-0-6-6-6--0-0-0-0-6-6-6----------------|  x2
C|-0-0-0-0--------0-0-0-0--------0-0-0-0--------0-3-4-0-4-5-6-|
   . . . .        . . . .        . . . .

Pre-Chorus
d|---------------------------------------------------------------------|
a|---------------------------------------------------------------------|
f|---------------------------------------------------------------------|
C|---------------------------------------------------------------------|
G|---------10---------------10---------------10---------------10-------|
C|-0-10-13----13-10-0-10-13----13-10-0-10-13----13-10-0-10-13----13-10-|

d|---------------------------------------------------------------------|
a|---------------------------------------------------------------------|
f|---------------------------------------------------------------------|
C|---------------------------------------------------------------------|
G|----------9----------------9----------------9----------------9-------|
C|-0-10-12----12-10-0-10-12----12-10-0-10-12----12-10-0-10-12----12-10-|

d|-----------------------------------------------------------------|
a|-----------------------------------------------------------------|
f|-----------------------------------------------------------------|
C|-----------------------------------------------------------------|
G|-----------------------------------------------------------------|
C|-0-10-13-0-13-10-0-10-13-0-13-10-0-10-13-0-13-10-0-10-13-0-13-10-|

d|-----------------------------------------------------------------|
a|-----------------------------------------------------------------|
f|-----------------------------------------------------------------|
C|-----------------------------------------------------------------|
G|-----------------------------------------------------------------|
C|-0-10-12-0-12-10-0-10-12-0-12-10-0-10-12-0-12-10-0-10-12-0-12-10-|


Chorus
d|-----------------------------|
a|-----------------------------|
f|-----------------------------| x1
C|---8------------5------------|
G|---6--(Strum)---5--(Strum)---|
C|---5------------5------------|

d|----------------------------------------------------|
a|----------------------------------------------------|
f|----------------------------------------------------| Last time x1
C|---8------------5-----------5-5-5-5-4-4-4-4-7-7-7-7-|
G|---6--(Strum)---5--(Strum)--5-5-5-5-5-5-5-5-5-5-5-5-|
C|---5------------5-----------5-5-5-5-5-5-5-5-5-5-5-5-|

Repeat Intro (x4 variant), Pre-Verse, Verse, Pre-Chorus, then Chorus.

Repeat Intro (x4 variant) then Pre-Verse

Riff Change (Breakdown) 3:17
d|-----------------------------------------|
a|-----------------------------------------|
f|-----------------------------------------|
C|-----------------------------------------|
G|----------5p0-3p0------------0-0-0-0-0-0-|
C|-0-2-3-0-------------0-2-3-0-0-0-0-0-0-0-|
                               . . . . . .

d|-----------------------------------------|
a|-----------------------------------------|
f|-----------------------------------------|
C|-----------------------------------------| Replace Palm Muted 0 with muted X
G|-0-2-3-0--5p0-3p0----0-2-3-0-0-0-0-0-0-0-|         on the 2nd time
C|-0-2-3-0-------------0-2-3-0-0-0-0-0-0-0-|
                               . . . . . .

Repeat Pre-Chorus then Chorus.

Repeat intro (x4 variant) with second Guitar playing backing track:

d|---------------------------------------|
a|---------------------------------------|
f|-5-------------------------------------|
C|-5--(Strum)---2--(Strum)----5--(Strum)-|
G|-3------------2-------------5----------|
C|--------------2-------------5----------|

Outro Riff
Guitar 1
d|------------------------------|
a|-13p0-0-13p0-0-13p0-0-13p0-12-|
f|------------------------------|
C|------------------------------|
G|------------------------------|
C|------------------------------|

Guitar 2
d|---0~-----0~-------|
a|---0~-----0~-------|
f|-5----5-5----5-----|
C|-5----5-5----5--2~-|
G|-3----3-3----3--2~-|
C|----------------2~-|

| .  palm mute
|   tremolo pick
| *  pinch harmonic
| ~  let note ring
| /  slide up
| \  slide down
| h  hammer-on
| p  pull-off
| v  vibrato
| +  natural harmonic
| x  mute note
=============================================================





Comments


Popular Inhale Exhale tabs & chords
Is The Fact That Im Trying To Do It For You Bass Tabs
A Call To The Faithful Tabs
A Call To The Faithful Intro Tabs
A Call To The Faithful Intro 1 Tabs
By Grace Intro Tabs
Dance All Night Tabs
Its Myself Vs Being A Man Intro Tabs
Knowledge Priceless Intro Tabs
Lost The Sick The Sacred 1 Tabs
Redemption Tabs


Song lyrics



↑ Back to top | Tablatures and chords are parodies/interpretations of the original songs. You may use it for private study, scholarship, research or language learning purposes only
© 2014 AZChords.com Contact us | Privacy policy | DMCA | Add/correct tabs | Request tabs | Top 50 tabs