» » »

Inhale Exhale, It's Myself Vs. Being A Man Tabs (ver.2)

Artists:  A B C D E F G H I J K L M N O P Q R S T U V W X Y Z # 

It's Myself Vs. Being A Man Tabs (ver.2)

Inhale Exhale Tabs
 Rating:
4/5 (4 votes)
It's Myself Vs. Being A Man lessons Tabs too difficult? Try these video lessons and learn fast
1
                ---------------------------------------------------------------------------
IT’S MYSELF VS BEING A MAN - Inhale Exhale
---------------------------------------------------------------------------

Tuning: CGCFAD

INTRO/MAIN RIFF (play twice)
D|-------------------------15---|
A|-12-0-0-12-0-0-13-0-12-0----0-|
F|------------------------------|
C|------------------------------|
G|------------------------------| x6
C|------------------------------|

D|----------------------8---|
A|-8-0-0-8-0-0-10-0-8-0---0-|
F|--------------------------|
C|--------------------------|
G|--------------------------| x4
C|--------------------------|

INTRO ENDS WITH
D|---------------------------------------------------|
A|---------------------------------------------------|
F|---------------------------------------------------|
C|-5-5-5--5-5-5-5--2~----5-5-5-5-5-5-5-5-5-5-5-5--2~-|
G|-3-3-3--3-3-3-3--2~----3-3-3-3-3-3-3-3-3-3-3-3--2~-|
C|-----------------2~-----------------------------2~-|

VERSE (play twice)
D|------------------------------------------------------------|
A|------------------------------------------------------------|
F|------------------------------------------------------------|
C|---------4-4-4----------4-4-4----------4-4-4----------------|
G|-0-0-0-0-6-6-6--0-0-0-0-6-6-6--0-0-0-0-6-6-6----------------|
C|-0-0-0-0--------0-0-0-0--------0-0-0-0--------0-3-4-0-4-5-6-|
   . . . .        . . . .        . . . .

PRE-CHORUS (play whole thing twice)
D|-----------------------------------------------------------------|
A|-----------------------------------------------------------------|
F|-----------------------------------------------------------------|
C|-----------------------------------------------------------------|
G|-----------------------------------------------------------------|
C|-0-10h13-0-13p10-0-10h13-0-13p10-0-10h13-0-13p10-0-10h13-0-13h10-|

D|-----------------------------------------------------------------|
A|-----------------------------------------------------------------|
F|-----------------------------------------------------------------|
C|-----------------------------------------------------------------|
G|-----------------------------------------------------------------|
C|-0-10h12-0-12p10-0-10h12-0-12p10-0-10h12-0-12p10-0-10h12-0-12h10-|

CHORUS
D|---------------------------------------|
A|---------------------------------------|
F|---------------------------------------|
C|-1--1-1-1-1-1--1--1-1-1-1-1--5---------|
G|-1--1-1-1-1-1--1--1-1-1-1-1--5-(strum)-|
C|-1--1-1-1-1-1--1--1-1-1-1-1--5---------|

REPEAT INTRO, REPEAT VERSE, ETC.

RIFF AT 3:17
D|--------------------------------------|
A|--------------------------------------|
F|--------------------------------------|
C|--------------------------------------|
G|---------5---3------------0-0-0-0-0-0-|
C|-0-2-3-0---0---0--0-2-3-0-0-0-0-0-0-0-|
                            . . . . . .

REPEAT INTRO, REPEAT VERSE, ETC.

END ON
D|--------------------|
A|--------------------|
F|--------------------|
C|-5-5-5--5-5-5-5--2~-|
G|-3-3-3--3-3-3-3--2~-|
C|-----------------2~-|

| .  palm mute
| “  tremolo pick
| *  pinch harmonic
| ~  let note ring
| /  slide up
| \  slide down
| h  hammer-on
| p  pull-off
| v  vibrato
| +  natural harmonic
| x  mute note
=============================================================
            
Submit corrections

comments powered by Disqus
↑ Back to top | Inhale Exhale Tabs for It's Myself Vs. Being A Man. Lyrics for acoustic guitar and electric guitar. 1 Tablatures and chords are parodies/interpretations of the original songs. You may use it for private study, scholarship, research or language learning purposes only