>
 >
A Call To The Faithful 1

A Call To The Faithful 1 Guitar Tabs

Inhale Exhale - A Call To The Faithful 1 chords, tabs, tablatures, lyrics

Guitar lessons | Add/correct | Request | Top 50 tabs Artists:  A B C D E F G H I J K L M N O P Q R S T U V W X Y Z 0-9

A Call To The Faithful 1 Guitar Tabs – Inhale Exhale

CD, Sheet music, Poster

Do you like A Call To The Faithful 1? Share with your friends now
TabsTabs v2
none of the other tabs made sense to me... so here's mine
p-pull off
h-hammer on
~-let it ring

d------------------------------------------]
a------------------------------------------]
f------------------------------------------]
c-0-0000-8-00-5-00-7-003-0-003-0-000-3-5-3-]
g-0-0000-6-00-3-00-5-003-0-003-0-000-3-5-3-]
c-0-0000---00---00---003p0-003p0-000h3h5p3-]           

d---------------------------------]
a---------------------------------]
f---------------------------------]               x4 both parts
c-000000-8-00-5-00-3~3-0-5~5-5-55-]
g-000000-6-00-3-00-3~3-0-5~5-5-55-]
c-000000---00---00-3~3-0-5~5-5-55-]
                                                    

d------------------------------]
a------------------------------]
f------------------------------]   
c-------------------------0000-]  x3
g-------------------------0000-]     
c-0h5h6-0h3h5-0h5h6-0h3h5-0000-]


d-------------------------]                     x2, both parts
a-------------------------]
f-------------------------]                    
c-------------00-----00-0-]                       
g-------------00-----00-0-]
c-0h5h6-0h3h5-00-3h5-00-0-]


d------------------------------]
a------------------------------]
f------------------------------]
c-------------------------0000-]x3
g-------0h3h5-------0h3h5-0000-]
c-0h3h5-------0h3h5-------0000-]



d-------------------------]
a-------------------------]
f-------------------------]
c-------------00-----00-0-] 
g-------0h3h5-00-----00-0-]
c-0h3h5-------00-3h5-00-0-]



d------------------------------]
a------------------------------]
f------------------------------]   
c-------------------------0000-] x3
g-------------------------0000-]     
c-0h5h6-0h3h5-0h5h6-0h3h5-0000-]


d-------------------------]                     
a-------------------------]
f-------------------------]                    
c-------------00-----00-0-]                       
g-------------00-----00-0-]
c-0h5h6-0h3h5-00-3h5-00-0-]


d---------------------------]        [----------------------------]
a---------------------------]        [----------------------------]
f---------------------------]        [----------------------------]
c-10h12-00-8h10-00-7h8-0000-]    x3  [-7h8-00-8h10-00-10h12-00-13-]  x2, both 
g---------------------------]        [----------------------------]     parts
c---------------------------]        [----------------------------]



d------------------------------------------]
a------------------------------------------]
f------------------------------------------]
c-0-0000-8-00-5-00-7-003-0-003-0-000-3-5-3-]
g-0-0000-6-00-3-00-5-003-0-003-0-000-3-5-3-]
c-0-0000---00---00---003p0-003p0-000h3h5p3-]           

d---------------------------------]
a---------------------------------]
f---------------------------------]               x4 both parts
c-000000-8-00-5-00-3~3-0-5~5-5-55-]
g-000000-6-00-3-00-3~3-0-5~5-5-55-]
c-000000---00---00-3~3-0-5~5-5-55-]




d------------------------------]
a------------------------------]
f------------------------------]   
c-------------------------0000-]  x3
g-------------------------0000-]     
c-0h5h6-0h3h5-0h5h6-0h3h5-0000-]


d-------------------------]                     x2, both parts
a-------------------------]
f-------------------------]                    
c-------------00-----00-0-]                       
g-------------00-----00-0-]
c-0h5h6-0h3h5-00-3h5-00-0-]


d------------------------------]
a------------------------------]
f------------------------------]
c-------------------------0000-]x3
g-------0h3h5-------0h3h5-0000-]
c-0h3h5-------0h3h5-------0000-]



d-------------------------]
a-------------------------]
f-------------------------]
c-------------00-----00-0-] 
g-------0h3h5-00-----00-0-]
c-0h3h5-------00-3h5-00-0-]



d------------------------------]
a------------------------------]
f------------------------------]   
c-------------------------0000-] x3
g-------------------------0000-]     
c-0h5h6-0h3h5-0h5h6-0h3h5-0000-]


d-------------------------]                     
a-------------------------]
f-------------------------]                    
c-------------00-----00-0-]                       
g-------------00-----00-0-]
c-0h5h6-0h3h5-00-3h5-00-0-]



d---------------------------]        [----------------------------]
a---------------------------]        [----------------------------]
f---------------------------]        [----------------------------]
c-10h12-00-8h10-00-7h8-0000-]    x3  [-7h8-00-8h10-00-10h12-00-13-]  x2, both 
g---------------------------]        [----------------------------]     parts
c---------------------------]        [----------------------------]


d---------------------------]        [----------------------------]
a---------------------------]        [----------------------------]
f---------------------------]        [----------------------------]
c---------------------------]    x3  [-7h8-00-8h10-00-10h12-00-13-]  x2, both 
g-10h12-00-8h10-00-7h8-0000-]        [-7h8-00-8h10-00-10h12-00-13-]     parts
c---------------------------]        [----------------------------]


d---------------------------------------------------------------]
a---------------------------------------------------------------]
f---------------------------------------------------------------]
c-000---00---00-----------------------000---00---00-------------]
g-000-7-00-8-00-13-12-10-10h12p10-8---000-7-00-8-00-13-12-10-13-]
c-000---00---00-----------------------000---00---00-------------]


that's as far as i've got, i'll tab the rest when i figure it out





Comments


Popular Inhale Exhale tabs & chords
Is The Fact That Im Trying To Do It For You Bass Tabs
By Grace Intro Tabs
Frail Dreams And Rude Awakenings Tabs
It's Myself Vs. Being A Man Tabs
It's Myself Vs. Being A Man 2 Tabs
Its Myself Vs Being A Man Intro Tabs
Lost The Sick The Sacred Tabs
Lost The Sick The Sacred 1 Tabs
Sons Of Tomorrow (To Noah James) 1 Tabs
Tonight We Die Together Tabs


Song lyrics



↑ Back to top | Tablatures and chords are parodies/interpretations of the original songs. You may use it for private study, scholarship, research or language learning purposes only
© 2014 AZChords.com Contact us | Privacy policy | DMCA | Add/correct tabs | Request tabs | Top 50 tabs